ISO-10303-21;
HEADER;
FILE_DESCRIPTION(('SolidDesigner STEP Export'),'2;1');
FILE_NAME('1686850_HC_NPT_3_4_M25-select.stp','2015-09-11T13:50:07',('')
,(''),
'Creo Elements/Direct Modeling STEP processor for AP214 (Solid Model)',
'Creo Elements/Direct Modeling 18.1B  29-Sep-2012 (C) Parametric Technol
ogy GmbH','');
FILE_SCHEMA(('AUTOMOTIVE_DESIGN { 1 0 10303 214 1 1 1 1 }'));
ENDSEC;
DATA;
#10=CARTESIAN_POINT('',(-0.0271980000000003,12.040509,0.));
#20=DIRECTION('',(-1.,0.,0.));
#30=DIRECTION('',(0.,1.,0.));
#40=AXIS2_PLACEMENT_3D('',#10,#20,#30);
#50=PLANE('',#40);
#60=CARTESIAN_POINT('',(-0.0271980000000003,0.540509,0.));
#70=DIRECTION('',(-1.,0.,0.));
#80=DIRECTION('',(0.,-1.,0.));
#90=AXIS2_PLACEMENT_3D('',#60,#70,#80);
#100=CIRCLE('',#90,13.284);
#110=CARTESIAN_POINT('',(-0.0271980000000003,-12.743491,0.));
#120=VERTEX_POINT('',#110);
#130=CARTESIAN_POINT('',(-0.0271980000000003,13.824509,
1.62682080798734E-15));
#140=VERTEX_POINT('',#130);
#150=EDGE_CURVE('',#120,#140,#100,.T.);
#160=ORIENTED_EDGE('',*,*,#150,.F.);
#170=EDGE_CURVE('',#140,#120,#100,.T.);
#180=ORIENTED_EDGE('',*,*,#170,.F.);
#190=EDGE_LOOP('',(#180,#160));
#200=FACE_BOUND('',#190,.T.);
#210=CARTESIAN_POINT('',(-0.0271980000000003,0.540509,0.));
#220=DIRECTION('',(-1.,0.,0.));
#230=DIRECTION('',(0.,1.,0.));
#240=AXIS2_PLACEMENT_3D('',#210,#220,#230);
#250=CIRCLE('',#240,15.);
#260=CARTESIAN_POINT('',(-0.0271980000000003,15.540509,0.));
#270=VERTEX_POINT('',#260);
#280=CARTESIAN_POINT('',(-0.0271980000000003,-14.459491,
-1.83697019872103E-15));
#290=VERTEX_POINT('',#280);
#300=EDGE_CURVE('',#270,#290,#250,.T.);
#310=ORIENTED_EDGE('',*,*,#300,.T.);
#320=EDGE_CURVE('',#290,#270,#250,.T.);
#330=ORIENTED_EDGE('',*,*,#320,.T.);
#340=EDGE_LOOP('',(#330,#310));
#350=FACE_OUTER_BOUND('',#340,.T.);
#360=ADVANCED_FACE('',(#200,#350),#50,.T.);
#370=COLOUR_RGB('',0.831372618675232,0.850980460643768,0.858823597431183
);
#380=FILL_AREA_STYLE_COLOUR('',#370);
#390=FILL_AREA_STYLE('',(#380));
#400=SURFACE_STYLE_FILL_AREA(#390);
#410=SURFACE_SIDE_STYLE('',(#400));
#420=SURFACE_STYLE_USAGE(.BOTH.,#410);
#430=PRESENTATION_STYLE_ASSIGNMENT((#420));
#440=CARTESIAN_POINT('',(27.972802,10.540509,0.));
#450=DIRECTION('',(1.,0.,0.));
#460=DIRECTION('',(0.,-1.,0.));
#470=AXIS2_PLACEMENT_3D('',#440,#450,#460);
#480=PLANE('',#470);
#490=CARTESIAN_POINT('',(27.972802,0.540509,0.));
#500=DIRECTION('',(1.,0.,0.));
#510=DIRECTION('',(0.,1.,0.));
#520=AXIS2_PLACEMENT_3D('',#490,#500,#510);
#530=CIRCLE('',#520,9.);
#540=CARTESIAN_POINT('',(27.972802,9.540509,0.));
#550=VERTEX_POINT('',#540);
#560=CARTESIAN_POINT('',(27.972802,-8.459491,1.10218211923262E-15));
#570=VERTEX_POINT('',#560);
#580=EDGE_CURVE('',#550,#570,#530,.T.);
#590=ORIENTED_EDGE('',*,*,#580,.F.);
#600=EDGE_CURVE('',#570,#550,#530,.T.);
#610=ORIENTED_EDGE('',*,*,#600,.F.);
#620=EDGE_LOOP('',(#610,#590));
#630=FACE_BOUND('',#620,.T.);
#640=CARTESIAN_POINT('',(27.972802,0.540509,0.));
#650=DIRECTION('',(-1.,0.,0.));
#660=DIRECTION('',(0.,1.,0.));
#670=AXIS2_PLACEMENT_3D('',#640,#650,#660);
#680=CIRCLE('',#670,12.5);
#690=CARTESIAN_POINT('',(27.972802,13.040509,0.));
#700=VERTEX_POINT('',#690);
#710=CARTESIAN_POINT('',(27.972802,-11.959491,-1.53080849893419E-15));
#720=VERTEX_POINT('',#710);
#730=EDGE_CURVE('',#700,#720,#680,.T.);
#740=ORIENTED_EDGE('',*,*,#730,.F.);
#750=EDGE_CURVE('',#720,#700,#680,.T.);
#760=ORIENTED_EDGE('',*,*,#750,.F.);
#770=EDGE_LOOP('',(#760,#740));
#780=FACE_OUTER_BOUND('',#770,.T.);
#790=ADVANCED_FACE('',(#630,#780),#480,.T.);
#800=COLOUR_RGB('',0.831372618675232,0.850980460643768,0.858823597431183
);
#810=FILL_AREA_STYLE_COLOUR('',#800);
#820=FILL_AREA_STYLE('',(#810));
#830=SURFACE_STYLE_FILL_AREA(#820);
#840=SURFACE_SIDE_STYLE('',(#830));
#850=SURFACE_STYLE_USAGE(.BOTH.,#840);
#860=PRESENTATION_STYLE_ASSIGNMENT((#850));
#870=CARTESIAN_POINT('',(25.972802,0.540509,0.));
#880=DIRECTION('',(-1.,0.,0.));
#890=DIRECTION('',(0.,1.,0.));
#900=AXIS2_PLACEMENT_3D('',#870,#880,#890);
#910=CYLINDRICAL_SURFACE('',#900,12.5);
#920=CARTESIAN_POINT('',(25.972802,13.040509,0.));
#930=DIRECTION('',(-1.,0.,0.));
#940=VECTOR('',#930,1.);
#950=LINE('',#920,#940);
#960=CARTESIAN_POINT('',(22.9677894371066,13.040509,
-1.53080849893419E-15));
#970=VERTEX_POINT('',#960);
#980=EDGE_CURVE('',#700,#970,#950,.T.);
#990=ORIENTED_EDGE('',*,*,#980,.T.);
#1000=ORIENTED_EDGE('',*,*,#750,.T.);
#1010=CARTESIAN_POINT('',(25.972802,-11.959491,-1.53080849893419E-15));
#1020=DIRECTION('',(-1.,0.,0.));
#1030=VECTOR('',#1020,1.);
#1040=LINE('',#1010,#1030);
#1050=CARTESIAN_POINT('',(22.9677894371066,-11.959491,
1.53080849893419E-15));
#1060=VERTEX_POINT('',#1050);
#1070=EDGE_CURVE('',#720,#1060,#1040,.T.);
#1080=ORIENTED_EDGE('',*,*,#1070,.F.);
#1090=CARTESIAN_POINT('',(22.9677894371066,0.540509,0.));
#1100=DIRECTION('',(1.,0.,0.));
#1110=DIRECTION('',(0.,-1.,1.22464679914735E-16));
#1120=AXIS2_PLACEMENT_3D('',#1090,#1100,#1110);
#1130=CIRCLE('',#1120,12.5);
#1140=EDGE_CURVE('',#970,#1060,#1130,.T.);
#1150=ORIENTED_EDGE('',*,*,#1140,.T.);
#1160=EDGE_LOOP('',(#1150,#1080,#1000,#990));
#1170=FACE_OUTER_BOUND('',#1160,.T.);
#1180=ADVANCED_FACE('',(#1170),#910,.T.);
#1190=COLOUR_RGB('',0.831372618675232,0.850980460643768,
0.858823597431183);
#1200=FILL_AREA_STYLE_COLOUR('',#1190);
#1210=FILL_AREA_STYLE('',(#1200));
#1220=SURFACE_STYLE_FILL_AREA(#1210);
#1230=SURFACE_SIDE_STYLE('',(#1220));
#1240=SURFACE_STYLE_USAGE(.BOTH.,#1230);
#1250=PRESENTATION_STYLE_ASSIGNMENT((#1240));
#1260=CARTESIAN_POINT('',(21.972802,0.540509,0.));
#1270=DIRECTION('',(1.,0.,0.));
#1280=DIRECTION('',(0.,-1.,1.22464679914735E-16));
#1290=AXIS2_PLACEMENT_3D('',#1260,#1270,#1280);
#1300=TOROIDAL_SURFACE('',#1290,12.4,1.);
#1310=CARTESIAN_POINT('',(21.972802,-11.859491,1.51856203094272E-15));
#1320=DIRECTION('',(0.,-1.22464679914735E-16,-1.));
#1330=DIRECTION('',(1.,0.,0.));
#1340=AXIS2_PLACEMENT_3D('',#1310,#1320,#1330);
#1350=CIRCLE('',#1340,1.);
#1360=CARTESIAN_POINT('',(21.0020326437722,-12.0995052850102,
1.54795530353146E-15));
#1370=VERTEX_POINT('',#1360);
#1380=EDGE_CURVE('',#1060,#1370,#1350,.T.);
#1390=ORIENTED_EDGE('',*,*,#1380,.F.);
#1400=CARTESIAN_POINT('',(21.0020326437722,0.540509,0.));
#1410=DIRECTION('',(1.,0.,0.));
#1420=DIRECTION('',(0.,-1.,1.22464679914735E-16));
#1430=AXIS2_PLACEMENT_3D('',#1400,#1410,#1420);
#1440=CIRCLE('',#1430,12.6400142850102);
#1450=CARTESIAN_POINT('',(21.0020326437722,13.1805232850102,
-1.54795530353146E-15));
#1460=VERTEX_POINT('',#1450);
#1470=EDGE_CURVE('',#1460,#1370,#1440,.T.);
#1480=ORIENTED_EDGE('',*,*,#1470,.T.);
#1490=CARTESIAN_POINT('',(21.972802,12.940509,-1.51856203094272E-15));
#1500=DIRECTION('',(0.,1.22464679914735E-16,1.));
#1510=DIRECTION('',(1.,0.,0.));
#1520=AXIS2_PLACEMENT_3D('',#1490,#1500,#1510);
#1530=CIRCLE('',#1520,1.);
#1540=EDGE_CURVE('',#970,#1460,#1530,.T.);
#1550=ORIENTED_EDGE('',*,*,#1540,.T.);
#1560=ORIENTED_EDGE('',*,*,#1140,.F.);
#1570=EDGE_LOOP('',(#1560,#1550,#1480,#1390));
#1580=FACE_OUTER_BOUND('',#1570,.T.);
#1590=ADVANCED_FACE('',(#1580),#1300,.T.);
#1600=COLOUR_RGB('',0.,0.,0.);
#1610=FILL_AREA_STYLE_COLOUR('',#1600);
#1620=FILL_AREA_STYLE('',(#1610));
#1630=SURFACE_STYLE_FILL_AREA(#1620);
#1640=SURFACE_SIDE_STYLE('',(#1630));
#1650=SURFACE_STYLE_USAGE(.BOTH.,#1640);
#1660=PRESENTATION_STYLE_ASSIGNMENT((#1650));
#1670=CARTESIAN_POINT('',(20.9874173218861,0.540509,0.));
#1680=DIRECTION('',(-1.,0.,0.));
#1690=DIRECTION('',(0.,-1.,1.22464679914735E-16));
#1700=AXIS2_PLACEMENT_3D('',#1670,#1680,#1690);
#1710=CYLINDRICAL_SURFACE('',#1700,12.6400142850102);
#1720=CARTESIAN_POINT('',(20.9874173218861,-12.0995052850102,
1.54795530353146E-15));
#1730=DIRECTION('',(-1.,0.,0.));
#1740=VECTOR('',#1730,1.);
#1750=LINE('',#1720,#1740);
#1760=CARTESIAN_POINT('',(20.972802,-12.0995052850102,
1.54795530353146E-15));
#1770=VERTEX_POINT('',#1760);
#1780=EDGE_CURVE('',#1370,#1770,#1750,.T.);
#1790=ORIENTED_EDGE('',*,*,#1780,.T.);
#1800=EDGE_CURVE('',#1370,#1460,#1440,.T.);
#1810=ORIENTED_EDGE('',*,*,#1800,.F.);
#1820=CARTESIAN_POINT('',(20.9874173218861,13.1805232850102,0.));
#1830=DIRECTION('',(-1.,0.,0.));
#1840=VECTOR('',#1830,1.);
#1850=LINE('',#1820,#1840);
#1860=CARTESIAN_POINT('',(20.972802,13.1805232850102,0.));
#1870=VERTEX_POINT('',#1860);
#1880=EDGE_CURVE('',#1460,#1870,#1850,.T.);
#1890=ORIENTED_EDGE('',*,*,#1880,.F.);
#1900=CARTESIAN_POINT('',(20.972802,0.540509,0.));
#1910=DIRECTION('',(-1.,0.,0.));
#1920=DIRECTION('',(0.,-1.,1.22464679914735E-16));
#1930=AXIS2_PLACEMENT_3D('',#1900,#1910,#1920);
#1940=CIRCLE('',#1930,12.6400142850102);
#1950=EDGE_CURVE('',#1870,#1770,#1940,.T.);
#1960=ORIENTED_EDGE('',*,*,#1950,.F.);
#1970=EDGE_LOOP('',(#1960,#1890,#1810,#1790));
#1980=FACE_OUTER_BOUND('',#1970,.T.);
#1990=ADVANCED_FACE('',(#1980),#1710,.T.);
#2000=COLOUR_RGB('',0.831372618675232,0.850980460643768,
0.858823597431183);
#2010=FILL_AREA_STYLE_COLOUR('',#2000);
#2020=FILL_AREA_STYLE('',(#2010));
#2030=SURFACE_STYLE_FILL_AREA(#2020);
#2040=SURFACE_SIDE_STYLE('',(#2030));
#2050=SURFACE_STYLE_USAGE(.BOTH.,#2040);
#2060=PRESENTATION_STYLE_ASSIGNMENT((#2050));
#2070=CARTESIAN_POINT('',(20.972802,21.490509,0.));
#2080=DIRECTION('',(1.,0.,0.));
#2090=DIRECTION('',(0.,-1.,0.));
#2100=AXIS2_PLACEMENT_3D('',#2070,#2080,#2090);
#2110=PLANE('',#2100);
#2120=EDGE_CURVE('',#1770,#1870,#1940,.T.);
#2130=ORIENTED_EDGE('',*,*,#2120,.T.);
#2140=ORIENTED_EDGE('',*,*,#1950,.T.);
#2150=EDGE_LOOP('',(#2140,#2130));
#2160=FACE_BOUND('',#2150,.T.);
#2170=CARTESIAN_POINT('',(20.972802,0.540509,0.));
#2180=DIRECTION('',(-1.,0.,0.));
#2190=DIRECTION('',(0.,1.,0.));
#2200=AXIS2_PLACEMENT_3D('',#2170,#2180,#2190);
#2210=CIRCLE('',#2200,15.);
#2220=CARTESIAN_POINT('',(20.972802,15.540509,0.));
#2230=VERTEX_POINT('',#2220);
#2240=CARTESIAN_POINT('',(20.972802,-14.459491,-1.83697019872103E-15));
#2250=VERTEX_POINT('',#2240);
#2260=EDGE_CURVE('',#2230,#2250,#2210,.T.);
#2270=ORIENTED_EDGE('',*,*,#2260,.F.);
#2280=EDGE_CURVE('',#2250,#2230,#2210,.T.);
#2290=ORIENTED_EDGE('',*,*,#2280,.F.);
#2300=EDGE_LOOP('',(#2290,#2270));
#2310=FACE_OUTER_BOUND('',#2300,.T.);
#2320=ADVANCED_FACE('',(#2160,#2310),#2110,.T.);
#2330=COLOUR_RGB('',0.831372618675232,0.850980460643768,
0.858823597431183);
#2340=FILL_AREA_STYLE_COLOUR('',#2330);
#2350=FILL_AREA_STYLE('',(#2340));
#2360=SURFACE_STYLE_FILL_AREA(#2350);
#2370=SURFACE_SIDE_STYLE('',(#2360));
#2380=SURFACE_STYLE_USAGE(.BOTH.,#2370);
#2390=PRESENTATION_STYLE_ASSIGNMENT((#2380));
#2400=CARTESIAN_POINT('',(11.972802,0.540509,0.));
#2410=DIRECTION('',(-1.,0.,0.));
#2420=DIRECTION('',(0.,1.,0.));
#2430=AXIS2_PLACEMENT_3D('',#2400,#2410,#2420);
#2440=CYLINDRICAL_SURFACE('',#2430,15.);
#2450=CARTESIAN_POINT('',(11.972802,15.540509,0.));
#2460=DIRECTION('',(-1.,0.,0.));
#2470=VECTOR('',#2460,1.);
#2480=LINE('',#2450,#2470);
#2490=EDGE_CURVE('',#2230,#270,#2480,.T.);
#2500=ORIENTED_EDGE('',*,*,#2490,.T.);
#2510=ORIENTED_EDGE('',*,*,#2280,.T.);
#2520=CARTESIAN_POINT('',(11.972802,-14.459491,-1.83697019872103E-15));
#2530=DIRECTION('',(-1.,0.,0.));
#2540=VECTOR('',#2530,1.);
#2550=LINE('',#2520,#2540);
#2560=EDGE_CURVE('',#2250,#290,#2550,.T.);
#2570=ORIENTED_EDGE('',*,*,#2560,.F.);
#2580=ORIENTED_EDGE('',*,*,#320,.F.);
#2590=EDGE_LOOP('',(#2580,#2570,#2510,#2500));
#2600=FACE_OUTER_BOUND('',#2590,.T.);
#2610=ADVANCED_FACE('',(#2600),#2440,.T.);
#2620=COLOUR_RGB('',0.831372618675232,0.850980460643768,
0.858823597431183);
#2630=FILL_AREA_STYLE_COLOUR('',#2620);
#2640=FILL_AREA_STYLE('',(#2630));
#2650=SURFACE_STYLE_FILL_AREA(#2640);
#2660=SURFACE_SIDE_STYLE('',(#2650));
#2670=SURFACE_STYLE_USAGE(.BOTH.,#2660);
#2680=PRESENTATION_STYLE_ASSIGNMENT((#2670));
#2690=CARTESIAN_POINT('',(28.972802,0.540509,0.));
#2700=DIRECTION('',(1.,0.,0.));
#2710=DIRECTION('',(0.,1.,0.));
#2720=AXIS2_PLACEMENT_3D('',#2690,#2700,#2710);
#2730=CYLINDRICAL_SURFACE('',#2720,9.);
#2740=CARTESIAN_POINT('',(28.972802,-8.459491,1.10218211923262E-15));
#2750=DIRECTION('',(1.,0.,0.));
#2760=VECTOR('',#2750,1.);
#2770=LINE('',#2740,#2760);
#2780=CARTESIAN_POINT('',(17.972802,-8.459491,1.10218211923262E-15));
#2790=VERTEX_POINT('',#2780);
#2800=EDGE_CURVE('',#2790,#570,#2770,.T.);
#2810=ORIENTED_EDGE('',*,*,#2800,.T.);
#2820=CARTESIAN_POINT('',(17.972802,0.540509,0.));
#2830=DIRECTION('',(1.,0.,0.));
#2840=DIRECTION('',(0.,1.,0.));
#2850=AXIS2_PLACEMENT_3D('',#2820,#2830,#2840);
#2860=CIRCLE('',#2850,9.);
#2870=CARTESIAN_POINT('',(17.972802,9.540509,0.));
#2880=VERTEX_POINT('',#2870);
#2890=EDGE_CURVE('',#2790,#2880,#2860,.T.);
#2900=ORIENTED_EDGE('',*,*,#2890,.F.);
#2910=CARTESIAN_POINT('',(28.972802,9.540509,0.));
#2920=DIRECTION('',(1.,0.,0.));
#2930=VECTOR('',#2920,1.);
#2940=LINE('',#2910,#2930);
#2950=EDGE_CURVE('',#2880,#550,#2940,.T.);
#2960=ORIENTED_EDGE('',*,*,#2950,.F.);
#2970=ORIENTED_EDGE('',*,*,#600,.T.);
#2980=EDGE_LOOP('',(#2970,#2960,#2900,#2810));
#2990=FACE_OUTER_BOUND('',#2980,.T.);
#3000=ADVANCED_FACE('',(#2990),#2730,.F.);
#3010=COLOUR_RGB('',0.831372618675232,0.850980460643768,
0.858823597431183);
#3020=FILL_AREA_STYLE_COLOUR('',#3010);
#3030=FILL_AREA_STYLE('',(#3020));
#3040=SURFACE_STYLE_FILL_AREA(#3030);
#3050=SURFACE_SIDE_STYLE('',(#3040));
#3060=SURFACE_STYLE_USAGE(.BOTH.,#3050);
#3070=PRESENTATION_STYLE_ASSIGNMENT((#3060));
#3080=CARTESIAN_POINT('',(2.972802,0.540509,0.));
#3090=DIRECTION('',(-1.,0.,0.));
#3100=DIRECTION('',(0.,-1.,0.));
#3110=AXIS2_PLACEMENT_3D('',#3080,#3090,#3100);
#3120=CYLINDRICAL_SURFACE('',#3110,13.284);
#3130=CARTESIAN_POINT('',(2.972802,13.824509,1.62682080798734E-15));
#3140=DIRECTION('',(-1.,0.,0.));
#3150=VECTOR('',#3140,1.);
#3160=LINE('',#3130,#3150);
#3170=CARTESIAN_POINT('',(17.972802,13.824509,1.62682080798734E-15));
#3180=VERTEX_POINT('',#3170);
#3190=EDGE_CURVE('',#3180,#140,#3160,.T.);
#3200=ORIENTED_EDGE('',*,*,#3190,.T.);
#3210=CARTESIAN_POINT('',(17.972802,0.540509,0.));
#3220=DIRECTION('',(-1.,0.,0.));
#3230=DIRECTION('',(0.,-1.,0.));
#3240=AXIS2_PLACEMENT_3D('',#3210,#3220,#3230);
#3250=CIRCLE('',#3240,13.284);
#3260=CARTESIAN_POINT('',(17.972802,-12.743491,0.));
#3270=VERTEX_POINT('',#3260);
#3280=EDGE_CURVE('',#3180,#3270,#3250,.T.);
#3290=ORIENTED_EDGE('',*,*,#3280,.F.);
#3300=CARTESIAN_POINT('',(2.972802,-12.743491,0.));
#3310=DIRECTION('',(-1.,0.,0.));
#3320=VECTOR('',#3310,1.);
#3330=LINE('',#3300,#3320);
#3340=EDGE_CURVE('',#3270,#120,#3330,.T.);
#3350=ORIENTED_EDGE('',*,*,#3340,.F.);
#3360=ORIENTED_EDGE('',*,*,#170,.T.);
#3370=EDGE_LOOP('',(#3360,#3350,#3290,#3200));
#3380=FACE_OUTER_BOUND('',#3370,.T.);
#3390=ADVANCED_FACE('',(#3380),#3120,.F.);
#3400=COLOUR_RGB('',0.831372618675232,0.850980460643768,
0.858823597431183);
#3410=FILL_AREA_STYLE_COLOUR('',#3400);
#3420=FILL_AREA_STYLE('',(#3410));
#3430=SURFACE_STYLE_FILL_AREA(#3420);
#3440=SURFACE_SIDE_STYLE('',(#3430));
#3450=SURFACE_STYLE_USAGE(.BOTH.,#3440);
#3460=PRESENTATION_STYLE_ASSIGNMENT((#3450));
#3470=CARTESIAN_POINT('',(17.972802,2.92846601962431,7.73884145658376));
#3480=DIRECTION('',(-1.,0.,0.));
#3490=DIRECTION('',(0.,-1.,0.));
#3500=AXIS2_PLACEMENT_3D('',#3470,#3480,#3490);
#3510=PLANE('',#3500);
#3520=EDGE_CURVE('',#2880,#2790,#2860,.T.);
#3530=ORIENTED_EDGE('',*,*,#3520,.T.);
#3540=ORIENTED_EDGE('',*,*,#2890,.T.);
#3550=EDGE_LOOP('',(#3540,#3530));
#3560=FACE_BOUND('',#3550,.T.);
#3570=EDGE_CURVE('',#3270,#3180,#3250,.T.);
#3580=ORIENTED_EDGE('',*,*,#3570,.T.);
#3590=ORIENTED_EDGE('',*,*,#3280,.T.);
#3600=EDGE_LOOP('',(#3590,#3580));
#3610=FACE_OUTER_BOUND('',#3600,.T.);
#3620=ADVANCED_FACE('',(#3560,#3610),#3510,.T.);
#3630=COLOUR_RGB('',0.831372618675232,0.850980460643768,
0.858823597431183);
#3640=FILL_AREA_STYLE_COLOUR('',#3630);
#3650=FILL_AREA_STYLE('',(#3640));
#3660=SURFACE_STYLE_FILL_AREA(#3650);
#3670=SURFACE_SIDE_STYLE('',(#3660));
#3680=SURFACE_STYLE_USAGE(.BOTH.,#3670);
#3690=PRESENTATION_STYLE_ASSIGNMENT((#3680));
#3700=CARTESIAN_POINT('',(28.972802,0.540509,0.));
#3710=DIRECTION('',(1.,0.,0.));
#3720=DIRECTION('',(0.,1.,0.));
#3730=AXIS2_PLACEMENT_3D('',#3700,#3710,#3720);
#3740=CYLINDRICAL_SURFACE('',#3730,9.);
#3750=ORIENTED_EDGE('',*,*,#3520,.F.);
#3760=ORIENTED_EDGE('',*,*,#2800,.F.);
#3770=ORIENTED_EDGE('',*,*,#580,.T.);
#3780=ORIENTED_EDGE('',*,*,#2950,.T.);
#3790=EDGE_LOOP('',(#3780,#3770,#3760,#3750));
#3800=FACE_OUTER_BOUND('',#3790,.T.);
#3810=ADVANCED_FACE('',(#3800),#3740,.F.);
#3820=COLOUR_RGB('',0.831372618675232,0.850980460643768,
0.858823597431183);
#3830=FILL_AREA_STYLE_COLOUR('',#3820);
#3840=FILL_AREA_STYLE('',(#3830));
#3850=SURFACE_STYLE_FILL_AREA(#3840);
#3860=SURFACE_SIDE_STYLE('',(#3850));
#3870=SURFACE_STYLE_USAGE(.BOTH.,#3860);
#3880=PRESENTATION_STYLE_ASSIGNMENT((#3870));
#3890=CARTESIAN_POINT('',(25.972802,0.540509,0.));
#3900=DIRECTION('',(-1.,0.,0.));
#3910=DIRECTION('',(0.,1.,0.));
#3920=AXIS2_PLACEMENT_3D('',#3890,#3900,#3910);
#3930=CYLINDRICAL_SURFACE('',#3920,12.5);
#3940=EDGE_CURVE('',#1060,#970,#1130,.T.);
#3950=ORIENTED_EDGE('',*,*,#3940,.T.);
#3960=ORIENTED_EDGE('',*,*,#1070,.T.);
#3970=ORIENTED_EDGE('',*,*,#730,.T.);
#3980=ORIENTED_EDGE('',*,*,#980,.F.);
#3990=EDGE_LOOP('',(#3980,#3970,#3960,#3950));
#4000=FACE_OUTER_BOUND('',#3990,.T.);
#4010=ADVANCED_FACE('',(#4000),#3930,.T.);
#4020=COLOUR_RGB('',0.831372618675232,0.850980460643768,
0.858823597431183);
#4030=FILL_AREA_STYLE_COLOUR('',#4020);
#4040=FILL_AREA_STYLE('',(#4030));
#4050=SURFACE_STYLE_FILL_AREA(#4040);
#4060=SURFACE_SIDE_STYLE('',(#4050));
#4070=SURFACE_STYLE_USAGE(.BOTH.,#4060);
#4080=PRESENTATION_STYLE_ASSIGNMENT((#4070));
#4090=CARTESIAN_POINT('',(2.972802,0.540509,0.));
#4100=DIRECTION('',(-1.,0.,0.));
#4110=DIRECTION('',(0.,-1.,0.));
#4120=AXIS2_PLACEMENT_3D('',#4090,#4100,#4110);
#4130=CYLINDRICAL_SURFACE('',#4120,13.284);
#4140=ORIENTED_EDGE('',*,*,#3570,.F.);
#4150=ORIENTED_EDGE('',*,*,#3190,.F.);
#4160=ORIENTED_EDGE('',*,*,#150,.T.);
#4170=ORIENTED_EDGE('',*,*,#3340,.T.);
#4180=EDGE_LOOP('',(#4170,#4160,#4150,#4140));
#4190=FACE_OUTER_BOUND('',#4180,.T.);
#4200=ADVANCED_FACE('',(#4190),#4130,.F.);
#4210=COLOUR_RGB('',0.831372618675232,0.850980460643768,
0.858823597431183);
#4220=FILL_AREA_STYLE_COLOUR('',#4210);
#4230=FILL_AREA_STYLE('',(#4220));
#4240=SURFACE_STYLE_FILL_AREA(#4230);
#4250=SURFACE_SIDE_STYLE('',(#4240));
#4260=SURFACE_STYLE_USAGE(.BOTH.,#4250);
#4270=PRESENTATION_STYLE_ASSIGNMENT((#4260));
#4280=CARTESIAN_POINT('',(11.972802,0.540509,0.));
#4290=DIRECTION('',(-1.,0.,0.));
#4300=DIRECTION('',(0.,1.,0.));
#4310=AXIS2_PLACEMENT_3D('',#4280,#4290,#4300);
#4320=CYLINDRICAL_SURFACE('',#4310,15.);
#4330=ORIENTED_EDGE('',*,*,#300,.F.);
#4340=ORIENTED_EDGE('',*,*,#2560,.T.);
#4350=ORIENTED_EDGE('',*,*,#2260,.T.);
#4360=ORIENTED_EDGE('',*,*,#2490,.F.);
#4370=EDGE_LOOP('',(#4360,#4350,#4340,#4330));
#4380=FACE_OUTER_BOUND('',#4370,.T.);
#4390=ADVANCED_FACE('',(#4380),#4320,.T.);
#4400=COLOUR_RGB('',0.831372618675232,0.850980460643768,
0.858823597431183);
#4410=FILL_AREA_STYLE_COLOUR('',#4400);
#4420=FILL_AREA_STYLE('',(#4410));
#4430=SURFACE_STYLE_FILL_AREA(#4420);
#4440=SURFACE_SIDE_STYLE('',(#4430));
#4450=SURFACE_STYLE_USAGE(.BOTH.,#4440);
#4460=PRESENTATION_STYLE_ASSIGNMENT((#4450));
#4470=CARTESIAN_POINT('',(20.9874173218861,0.540509,0.));
#4480=DIRECTION('',(-1.,0.,0.));
#4490=DIRECTION('',(0.,-1.,1.22464679914735E-16));
#4500=AXIS2_PLACEMENT_3D('',#4470,#4480,#4490);
#4510=CYLINDRICAL_SURFACE('',#4500,12.6400142850102);
#4520=ORIENTED_EDGE('',*,*,#1780,.F.);
#4530=ORIENTED_EDGE('',*,*,#2120,.F.);
#4540=ORIENTED_EDGE('',*,*,#1880,.T.);
#4550=ORIENTED_EDGE('',*,*,#1470,.F.);
#4560=EDGE_LOOP('',(#4550,#4540,#4530,#4520));
#4570=FACE_OUTER_BOUND('',#4560,.T.);
#4580=ADVANCED_FACE('',(#4570),#4510,.T.);
#4590=COLOUR_RGB('',0.831372618675232,0.850980460643768,
0.858823597431183);
#4600=FILL_AREA_STYLE_COLOUR('',#4590);
#4610=FILL_AREA_STYLE('',(#4600));
#4620=SURFACE_STYLE_FILL_AREA(#4610);
#4630=SURFACE_SIDE_STYLE('',(#4620));
#4640=SURFACE_STYLE_USAGE(.BOTH.,#4630);
#4650=PRESENTATION_STYLE_ASSIGNMENT((#4640));
#4660=CARTESIAN_POINT('',(21.972802,0.540509,0.));
#4670=DIRECTION('',(1.,0.,0.));
#4680=DIRECTION('',(0.,-1.,1.22464679914735E-16));
#4690=AXIS2_PLACEMENT_3D('',#4660,#4670,#4680);
#4700=TOROIDAL_SURFACE('',#4690,12.4,1.);
#4710=ORIENTED_EDGE('',*,*,#3940,.F.);
#4720=ORIENTED_EDGE('',*,*,#1540,.F.);
#4730=ORIENTED_EDGE('',*,*,#1800,.T.);
#4740=ORIENTED_EDGE('',*,*,#1380,.T.);
#4750=EDGE_LOOP('',(#4740,#4730,#4720,#4710));
#4760=FACE_OUTER_BOUND('',#4750,.T.);
#4770=ADVANCED_FACE('',(#4760),#4700,.T.);
#4780=COLOUR_RGB('',0.,0.,0.);
#4790=FILL_AREA_STYLE_COLOUR('',#4780);
#4800=FILL_AREA_STYLE('',(#4790));
#4810=SURFACE_STYLE_FILL_AREA(#4800);
#4820=SURFACE_SIDE_STYLE('',(#4810));
#4830=SURFACE_STYLE_USAGE(.BOTH.,#4820);
#4840=PRESENTATION_STYLE_ASSIGNMENT((#4830));
#4850=CLOSED_SHELL('',(#360,#790,#1180,#1590,#1990,#2320,#2610,#3000,
#3390,#3620,#3810,#4010,#4200,#4390,#4580,#4770));
#4860=MANIFOLD_SOLID_BREP('',#4850);
#4870=CARTESIAN_POINT('',(0.,0.,0.));
#4880=DIRECTION('',(0.,0.,1.));
#4890=DIRECTION('',(1.,0.,0.));
#4900=AXIS2_PLACEMENT_3D('',#4870,#4880,#4890);
#4910=APPLICATION_CONTEXT(' ');
#4920=APPLICATION_PROTOCOL_DEFINITION(' ','automotive_design',1998,#4910
);
#4930=PRODUCT_CONTEXT('',#4910,'mechanical');
#4940=PRODUCT_DEFINITION_CONTEXT('part definition',#4910,'design');
#4950=PRODUCT('1686850_HC_NPT_3_4_M25-select',
'1686850_HC_NPT_3_4_M25-select','',(#4930));
#4960=PRODUCT_RELATED_PRODUCT_CATEGORY('part',' ',(#4950));
#4970=PRODUCT_DEFINITION_FORMATION_WITH_SPECIFIED_SOURCE('','',#4950,
.BOUGHT.);
#4980=PRODUCT_DEFINITION('',' ',#4970,#4940);
#4990=PRODUCT_DEFINITION_SHAPE('','',#4980);
#5000=DIMENSIONAL_EXPONENTS(1.,0.,0.,0.,0.,0.,0.);
#5010=DIMENSIONAL_EXPONENTS(0.,0.,0.,0.,0.,0.,0.);
#5020=DIMENSIONAL_EXPONENTS(0.,0.,0.,0.,0.,0.,0.);
#5030=(LENGTH_UNIT() NAMED_UNIT(*) SI_UNIT(.MILLI.,.METRE.));
#5040=(NAMED_UNIT(*) PLANE_ANGLE_UNIT() SI_UNIT($,.RADIAN.));
#5050=(NAMED_UNIT(*) SI_UNIT($,.STERADIAN.) SOLID_ANGLE_UNIT());
#5060=(GEOMETRIC_REPRESENTATION_CONTEXT(3) 
GLOBAL_UNCERTAINTY_ASSIGNED_CONTEXT((#5070)) 
GLOBAL_UNIT_ASSIGNED_CONTEXT((#5030,#5040,#5050)) REPRESENTATION_CONTEXT
('',''));
#5070=UNCERTAINTY_MEASURE_WITH_UNIT(LENGTH_MEASURE(1.E-6),#5030,
'distance_accuracy_value','maximum gap value');
#5080=ADVANCED_BREP_SHAPE_REPRESENTATION('',(#4900,#4860),#5060);
#5090=SHAPE_DEFINITION_REPRESENTATION(#4990,#5080);
#5100=COLOUR_RGB('',0.831372618675232,0.850980460643768,
0.858823597431183);
#5110=FILL_AREA_STYLE_COLOUR('',#5100);
#5120=FILL_AREA_STYLE('',(#5110));
#5130=SURFACE_STYLE_FILL_AREA(#5120);
#5140=SURFACE_SIDE_STYLE('',(#5130));
#5150=SURFACE_STYLE_USAGE(.BOTH.,#5140);
#5160=PRESENTATION_STYLE_ASSIGNMENT((#5150));
#5170=STYLED_ITEM('',(#5160),#4860);
#5180=OVER_RIDING_STYLED_ITEM('',(#430),#360,#5170);
#5190=OVER_RIDING_STYLED_ITEM('',(#860),#790,#5170);
#5200=OVER_RIDING_STYLED_ITEM('',(#1250),#1180,#5170);
#5210=OVER_RIDING_STYLED_ITEM('',(#1660),#1590,#5170);
#5220=OVER_RIDING_STYLED_ITEM('',(#2060),#1990,#5170);
#5230=OVER_RIDING_STYLED_ITEM('',(#2390),#2320,#5170);
#5240=OVER_RIDING_STYLED_ITEM('',(#2680),#2610,#5170);
#5250=OVER_RIDING_STYLED_ITEM('',(#3070),#3000,#5170);
#5260=OVER_RIDING_STYLED_ITEM('',(#3460),#3390,#5170);
#5270=OVER_RIDING_STYLED_ITEM('',(#3690),#3620,#5170);
#5280=OVER_RIDING_STYLED_ITEM('',(#3880),#3810,#5170);
#5290=OVER_RIDING_STYLED_ITEM('',(#4080),#4010,#5170);
#5300=OVER_RIDING_STYLED_ITEM('',(#4270),#4200,#5170);
#5310=OVER_RIDING_STYLED_ITEM('',(#4460),#4390,#5170);
#5320=OVER_RIDING_STYLED_ITEM('',(#4650),#4580,#5170);
#5330=OVER_RIDING_STYLED_ITEM('',(#4840),#4770,#5170);
#5340=DRAUGHTING_MODEL('',(#5170,#5180,#5190,#5200,#5210,#5220,#5230,
#5240,#5250,#5260,#5270,#5280,#5290,#5300,#5310,#5320,#5330),#5060);
#5350=CARTESIAN_POINT('',(-27.972802,-0.540509,0.));
#5360=DIRECTION('',(0.,0.,1.));
#5370=DIRECTION('',(1.,0.,0.));
#5380=AXIS2_PLACEMENT_3D('',#5350,#5360,#5370);
#5390=ITEM_DEFINED_TRANSFORMATION('1686850_HC_NPT_3_4_M25-select','',
#4900,#5380);
#5400=APPLICATION_CONTEXT(' ');
#5410=APPLICATION_PROTOCOL_DEFINITION(' ','automotive_design',1998,#5400
);
#5420=PRODUCT_CONTEXT('',#5400,'mechanical');
#5430=PRODUCT_DEFINITION_CONTEXT('part definition',#5400,'design');
#5440=PRODUCT('1686850_HC_NPT_3_4_M25-select',
'1686850_HC_NPT_3_4_M25-select','',(#5420));
#5450=PRODUCT_RELATED_PRODUCT_CATEGORY('part',' ',(#5440));
#5460=PRODUCT_DEFINITION_FORMATION_WITH_SPECIFIED_SOURCE('','',#5440,
.BOUGHT.);
#5470=PRODUCT_DEFINITION('',' ',#5460,#5430);
#5480=PRODUCT_DEFINITION_SHAPE('','',#5470);
#5490=DIMENSIONAL_EXPONENTS(1.,0.,0.,0.,0.,0.,0.);
#5500=DIMENSIONAL_EXPONENTS(0.,0.,0.,0.,0.,0.,0.);
#5510=DIMENSIONAL_EXPONENTS(0.,0.,0.,0.,0.,0.,0.);
#5520=(LENGTH_UNIT() NAMED_UNIT(*) SI_UNIT(.MILLI.,.METRE.));
#5530=(NAMED_UNIT(*) PLANE_ANGLE_UNIT() SI_UNIT($,.RADIAN.));
#5540=(NAMED_UNIT(*) SI_UNIT($,.STERADIAN.) SOLID_ANGLE_UNIT());
#5550=(GEOMETRIC_REPRESENTATION_CONTEXT(3) 
GLOBAL_UNCERTAINTY_ASSIGNED_CONTEXT((#5560)) 
GLOBAL_UNIT_ASSIGNED_CONTEXT((#5520,#5530,#5540)) REPRESENTATION_CONTEXT
('',''));
#5560=UNCERTAINTY_MEASURE_WITH_UNIT(LENGTH_MEASURE(1.E-6),#5520,
'distance_accuracy_value','maximum gap value');
#5570=SHAPE_REPRESENTATION('',(#4900,#5380),#5550);
#5580=SHAPE_DEFINITION_REPRESENTATION(#5480,#5570);
#5590=(REPRESENTATION_RELATIONSHIP('','',#5080,#5570) 
REPRESENTATION_RELATIONSHIP_WITH_TRANSFORMATION(#5390) 
SHAPE_REPRESENTATION_RELATIONSHIP());
#5600=NEXT_ASSEMBLY_USAGE_OCCURRENCE('1','',
'1686850_HC_NPT_3_4_M25-select',#5470,#4980,'');
#5610=PRODUCT_DEFINITION_SHAPE('','',#5600);
#5620=CONTEXT_DEPENDENT_SHAPE_REPRESENTATION(#5590,#5610);
ENDSEC;
END-ISO-10303-21;
