ISO-10303-21;
HEADER;
FILE_DESCRIPTION(('SolidDesigner STEP Export'),'2;1');
FILE_NAME('1686229_HC_D_7_DS_IP65-select.stp','2013-06-12T12:38:53',('')
,(''),
'Creo Elements/Direct Modeling STEP processor for AP214 (Solid Model)',
'Creo Elements/Direct Modeling 18.1  06-May-2012 (C) Parametric Technolo
gy GmbH','');
FILE_SCHEMA(('AUTOMOTIVE_DESIGN { 1 0 10303 214 1 1 1 1 }'));
ENDSEC;
DATA;
#10=CARTESIAN_POINT('',(5.00599561803472E-14,3.35000000000004,0.));
#20=DIRECTION('',(-2.65121258280487E-14,1.,0.));
#30=DIRECTION('',(1.,2.65121258280487E-14,0.));
#40=AXIS2_PLACEMENT_3D('',#10,#20,#30);
#50=CONICAL_SURFACE('',#40,1.00000000000001,0.785398163397455);
#60=CARTESIAN_POINT('',(1.00000000000006,3.35000000000007,0.));
#70=DIRECTION('',(0.707106781186534,0.707106781186561,0.));
#80=VECTOR('',#70,1.41421356237311);
#90=LINE('',#60,#80);
#100=CARTESIAN_POINT('',(1.5,3.85000000000002,0.));
#110=VERTEX_POINT('',#100);
#120=CARTESIAN_POINT('',(2.74999999999993,5.1,0.));
#130=VERTEX_POINT('',#120);
#140=EDGE_CURVE('',#110,#130,#90,.T.);
#150=ORIENTED_EDGE('',*,*,#140,.F.);
#160=CARTESIAN_POINT('',(3.66373598126304E-15,5.1,0.));
#170=DIRECTION('',(-2.64838656056038E-14,1.,0.));
#180=DIRECTION('',(1.,2.64838656056038E-14,0.));
#190=AXIS2_PLACEMENT_3D('',#160,#170,#180);
#200=CIRCLE('',#190,2.75);
#210=CARTESIAN_POINT('',(-2.74999999999999,5.09999999999993,
-3.36777869765522E-16));
#220=VERTEX_POINT('',#210);
#230=EDGE_CURVE('',#130,#220,#200,.T.);
#240=ORIENTED_EDGE('',*,*,#230,.F.);
#250=CARTESIAN_POINT('',(-0.999999999999964,3.35000000000001,
-1.22464679914737E-16));
#260=DIRECTION('',(-0.707106781186571,0.707106781186524,
-8.65956056235499E-17));
#270=VECTOR('',#260,1.4142135623731);
#280=LINE('',#250,#270);
#290=CARTESIAN_POINT('',(-1.49999999999992,3.84999999999994,
-1.83697019872098E-16));
#300=VERTEX_POINT('',#290);
#310=EDGE_CURVE('',#300,#220,#280,.T.);
#320=ORIENTED_EDGE('',*,*,#310,.T.);
#330=CARTESIAN_POINT('',(3.68038932663244E-14,3.84999999999998,0.));
#340=DIRECTION('',(2.66453525910044E-14,-1.,-3.40594974918142E-33));
#350=DIRECTION('',(-1.,-2.66453525910044E-14,2.55650567019559E-17));
#360=AXIS2_PLACEMENT_3D('',#330,#340,#350);
#370=CIRCLE('',#360,1.49999999999996);
#380=EDGE_CURVE('',#300,#110,#370,.T.);
#390=ORIENTED_EDGE('',*,*,#380,.F.);
#400=EDGE_LOOP('',(#390,#320,#240,#150));
#410=FACE_OUTER_BOUND('',#400,.T.);
#420=ADVANCED_FACE('',(#410),#50,.T.);
#430=COLOUR_RGB('',1.,1.,1.);
#440=FILL_AREA_STYLE_COLOUR('',#430);
#450=FILL_AREA_STYLE('',(#440));
#460=SURFACE_STYLE_FILL_AREA(#450);
#470=SURFACE_SIDE_STYLE('',(#460));
#480=SURFACE_STYLE_USAGE(.BOTH.,#470);
#490=PRESENTATION_STYLE_ASSIGNMENT((#480));
#500=CARTESIAN_POINT('',(4.21884749357559E-15,5.1,1.11022302462516E-16))
;
#510=DIRECTION('',(0.,1.,0.));
#520=DIRECTION('',(0.,0.,1.));
#530=AXIS2_PLACEMENT_3D('',#500,#510,#520);
#540=PLANE('',#530);
#550=ORIENTED_EDGE('',*,*,#230,.T.);
#560=EDGE_CURVE('',#220,#130,#200,.T.);
#570=ORIENTED_EDGE('',*,*,#560,.T.);
#580=EDGE_LOOP('',(#570,#550));
#590=FACE_OUTER_BOUND('',#580,.T.);
#600=CARTESIAN_POINT('',(-5.55111512312559E-16,5.1,0.));
#610=DIRECTION('',(-2.25294038167837E-14,-1.,-2.07527670322036E-29));
#620=DIRECTION('',(-1.,2.25294038167837E-14,-1.17304540065273E-13));
#630=AXIS2_PLACEMENT_3D('',#600,#610,#620);
#640=CIRCLE('',#630,2.05);
#650=CARTESIAN_POINT('',(-2.04999999999995,5.1,-2.51052593825202E-16));
#660=VERTEX_POINT('',#650);
#670=CARTESIAN_POINT('',(2.05,5.09999999999996,0.));
#680=VERTEX_POINT('',#670);
#690=EDGE_CURVE('',#660,#680,#640,.T.);
#700=ORIENTED_EDGE('',*,*,#690,.T.);
#710=EDGE_CURVE('',#680,#660,#640,.T.);
#720=ORIENTED_EDGE('',*,*,#710,.T.);
#730=EDGE_LOOP('',(#720,#700));
#740=FACE_BOUND('',#730,.T.);
#750=ADVANCED_FACE('',(#590,#740),#540,.T.);
#760=COLOUR_RGB('',1.,1.,1.);
#770=FILL_AREA_STYLE_COLOUR('',#760);
#780=FILL_AREA_STYLE('',(#770));
#790=SURFACE_STYLE_FILL_AREA(#780);
#800=SURFACE_SIDE_STYLE('',(#790));
#810=SURFACE_STYLE_USAGE(.BOTH.,#800);
#820=PRESENTATION_STYLE_ASSIGNMENT((#810));
#830=CARTESIAN_POINT('',(3.66928709638614E-14,2.075,1.11022302462516E-16
));
#840=DIRECTION('',(0.,1.,0.));
#850=DIRECTION('',(1.,0.,-7.40148683083456E-17));
#860=AXIS2_PLACEMENT_3D('',#830,#840,#850);
#870=CYLINDRICAL_SURFACE('',#860,1.49999999999996);
#880=CARTESIAN_POINT('',(-1.49999999999993,2.075,3.83475850529329E-17));
#890=DIRECTION('',(0.,1.,0.));
#900=VECTOR('',#890,1.);
#910=LINE('',#880,#900);
#920=CARTESIAN_POINT('',(-1.49999999999993,0.,3.83475850529329E-17));
#930=VERTEX_POINT('',#920);
#940=EDGE_CURVE('',#930,#300,#910,.T.);
#950=ORIENTED_EDGE('',*,*,#940,.T.);
#960=CARTESIAN_POINT('',(3.66928709638614E-14,0.,1.11022302462516E-16));
#970=DIRECTION('',(0.,1.,0.));
#980=DIRECTION('',(1.,0.,-7.40148683083456E-17));
#990=AXIS2_PLACEMENT_3D('',#960,#970,#980);
#1000=CIRCLE('',#990,1.49999999999996);
#1010=CARTESIAN_POINT('',(1.5,0.,8.62816615085482E-32));
#1020=VERTEX_POINT('',#1010);
#1030=EDGE_CURVE('',#1020,#930,#1000,.T.);
#1040=ORIENTED_EDGE('',*,*,#1030,.T.);
#1050=CARTESIAN_POINT('',(1.5,2.075,8.62816615085482E-32));
#1060=DIRECTION('',(0.,1.,0.));
#1070=VECTOR('',#1060,1.);
#1080=LINE('',#1050,#1070);
#1090=EDGE_CURVE('',#1020,#110,#1080,.T.);
#1100=ORIENTED_EDGE('',*,*,#1090,.F.);
#1110=ORIENTED_EDGE('',*,*,#380,.T.);
#1120=EDGE_LOOP('',(#1110,#1100,#1040,#950));
#1130=FACE_OUTER_BOUND('',#1120,.T.);
#1140=ADVANCED_FACE('',(#1130),#870,.T.);
#1150=COLOUR_RGB('',1.,1.,1.);
#1160=FILL_AREA_STYLE_COLOUR('',#1150);
#1170=FILL_AREA_STYLE('',(#1160));
#1180=SURFACE_STYLE_FILL_AREA(#1170);
#1190=SURFACE_SIDE_STYLE('',(#1180));
#1200=SURFACE_STYLE_USAGE(.BOTH.,#1190);
#1210=PRESENTATION_STYLE_ASSIGNMENT((#1200));
#1220=CARTESIAN_POINT('',(0.882494716935615,6.,-0.690057711887986));
#1230=DIRECTION('',(0.,1.,0.));
#1240=DIRECTION('',(0.,0.,1.));
#1250=AXIS2_PLACEMENT_3D('',#1220,#1230,#1240);
#1260=PLANE('',#1250);
#1270=CARTESIAN_POINT('',(1.62092561595273E-14,6.,0.));
#1280=DIRECTION('',(-0.,1.,0.));
#1290=DIRECTION('',(0.142857142857137,0.,0.989743318610788));
#1300=AXIS2_PLACEMENT_3D('',#1270,#1280,#1290);
#1310=CIRCLE('',#1300,2.79999999999999);
#1320=CARTESIAN_POINT('',(0.399999999999998,6.,2.7712812921102));
#1330=VERTEX_POINT('',#1320);
#1340=CARTESIAN_POINT('',(0.4,6.,-2.7712812921102));
#1350=VERTEX_POINT('',#1340);
#1360=EDGE_CURVE('',#1330,#1350,#1310,.T.);
#1370=ORIENTED_EDGE('',*,*,#1360,.T.);
#1380=CARTESIAN_POINT('',(0.4,6.,2.7712812921102));
#1390=DIRECTION('',(0.,0.,-1.));
#1400=VECTOR('',#1390,1.);
#1410=LINE('',#1380,#1400);
#1420=EDGE_CURVE('',#1330,#1350,#1410,.T.);
#1430=ORIENTED_EDGE('',*,*,#1420,.F.);
#1440=EDGE_LOOP('',(#1430,#1370));
#1450=FACE_OUTER_BOUND('',#1440,.T.);
#1460=ADVANCED_FACE('',(#1450),#1260,.T.);
#1470=COLOUR_RGB('',1.,1.,1.);
#1480=FILL_AREA_STYLE_COLOUR('',#1470);
#1490=FILL_AREA_STYLE('',(#1480));
#1500=SURFACE_STYLE_FILL_AREA(#1490);
#1510=SURFACE_SIDE_STYLE('',(#1500));
#1520=SURFACE_STYLE_USAGE(.BOTH.,#1510);
#1530=PRESENTATION_STYLE_ASSIGNMENT((#1520));
#1540=CARTESIAN_POINT('',(-1.59999999999997,6.,0.));
#1550=DIRECTION('',(0.,1.,0.));
#1560=DIRECTION('',(0.,0.,1.));
#1570=AXIS2_PLACEMENT_3D('',#1540,#1550,#1560);
#1580=PLANE('',#1570);
#1590=CARTESIAN_POINT('',(1.62092561595273E-14,6.,0.));
#1600=DIRECTION('',(0.,1.,0.));
#1610=DIRECTION('',(-1.,0.,5.40837216281691E-14));
#1620=AXIS2_PLACEMENT_3D('',#1590,#1600,#1610);
#1630=CIRCLE('',#1620,2.79999999999999);
#1640=CARTESIAN_POINT('',(-0.399999999999999,6.,-2.77128129211019));
#1650=VERTEX_POINT('',#1640);
#1660=CARTESIAN_POINT('',(-0.4,6.,2.7712812921102));
#1670=VERTEX_POINT('',#1660);
#1680=EDGE_CURVE('',#1650,#1670,#1630,.T.);
#1690=ORIENTED_EDGE('',*,*,#1680,.T.);
#1700=CARTESIAN_POINT('',(-0.4,6.,-2.7712812921102));
#1710=DIRECTION('',(0.,0.,1.));
#1720=VECTOR('',#1710,1.);
#1730=LINE('',#1700,#1720);
#1740=EDGE_CURVE('',#1650,#1670,#1730,.T.);
#1750=ORIENTED_EDGE('',*,*,#1740,.F.);
#1760=EDGE_LOOP('',(#1750,#1690));
#1770=FACE_OUTER_BOUND('',#1760,.T.);
#1780=ADVANCED_FACE('',(#1770),#1580,.T.);
#1790=COLOUR_RGB('',1.,1.,1.);
#1800=FILL_AREA_STYLE_COLOUR('',#1790);
#1810=FILL_AREA_STYLE('',(#1800));
#1820=SURFACE_STYLE_FILL_AREA(#1810);
#1830=SURFACE_SIDE_STYLE('',(#1820));
#1840=SURFACE_STYLE_USAGE(.BOTH.,#1830);
#1850=PRESENTATION_STYLE_ASSIGNMENT((#1840));
#1860=CARTESIAN_POINT('',(1.38777878078145E-16,5.3,-6.66133814775094E-16
));
#1870=DIRECTION('',(0.,1.,0.));
#1880=DIRECTION('',(1.,-0.,0.));
#1890=AXIS2_PLACEMENT_3D('',#1860,#1870,#1880);
#1900=PLANE('',#1890);
#1910=CARTESIAN_POINT('',(3.91538653351135E-15,5.3,0.));
#1920=DIRECTION('',(2.23478117584317E-14,1.,2.58971947469188E-17));
#1930=DIRECTION('',(-0.177777777777784,3.94745964311168E-15,
0.984070658910423));
#1940=AXIS2_PLACEMENT_3D('',#1910,#1920,#1930);
#1950=CIRCLE('',#1940,2.25);
#1960=CARTESIAN_POINT('',(-0.4,5.29999998318247,2.21415896545868));
#1970=VERTEX_POINT('',#1960);
#1980=CARTESIAN_POINT('',(0.400000186207202,5.3,2.2141589489091));
#1990=VERTEX_POINT('',#1980);
#2000=EDGE_CURVE('',#1970,#1990,#1950,.T.);
#2010=ORIENTED_EDGE('',*,*,#2000,.T.);
#2020=CARTESIAN_POINT('',(-0.4,5.3,2.2141589825484));
#2030=DIRECTION('',(0.,2.60738498455421E-15,-1.));
#2040=VECTOR('',#2030,1.);
#2050=LINE('',#2020,#2040);
#2060=CARTESIAN_POINT('',(-0.4,5.3,-2.21415700491114));
#2070=VERTEX_POINT('',#2060);
#2080=EDGE_CURVE('',#1970,#2070,#2050,.T.);
#2090=ORIENTED_EDGE('',*,*,#2080,.F.);
#2100=CARTESIAN_POINT('',(3.91538653351134E-15,5.3,0.));
#2110=DIRECTION('',(2.23478117584317E-14,1.,2.58971947468384E-17));
#2120=DIRECTION('',(0.17777777777778,-3.94745964311168E-15,
-0.984070658910423));
#2130=AXIS2_PLACEMENT_3D('',#2100,#2110,#2120);
#2140=CIRCLE('',#2130,2.25);
#2150=CARTESIAN_POINT('',(0.4000001862072,5.3,-2.21415894890909));
#2160=VERTEX_POINT('',#2150);
#2170=EDGE_CURVE('',#2160,#2070,#2140,.T.);
#2180=ORIENTED_EDGE('',*,*,#2170,.T.);
#2190=CARTESIAN_POINT('',(0.4,5.3,-2.2141589825484));
#2200=DIRECTION('',(0.,2.60738498455421E-15,1.));
#2210=VECTOR('',#2200,1.);
#2220=LINE('',#2190,#2210);
#2230=EDGE_CURVE('',#2160,#1990,#2220,.T.);
#2240=ORIENTED_EDGE('',*,*,#2230,.F.);
#2250=EDGE_LOOP('',(#2240,#2180,#2090,#2010));
#2260=FACE_OUTER_BOUND('',#2250,.T.);
#2270=ADVANCED_FACE('',(#2260),#1900,.T.);
#2280=COLOUR_RGB('',1.,1.,1.);
#2290=FILL_AREA_STYLE_COLOUR('',#2280);
#2300=FILL_AREA_STYLE('',(#2290));
#2310=SURFACE_STYLE_FILL_AREA(#2300);
#2320=SURFACE_SIDE_STYLE('',(#2310));
#2330=SURFACE_STYLE_USAGE(.BOTH.,#2320);
#2340=PRESENTATION_STYLE_ASSIGNMENT((#2330));
#2350=CARTESIAN_POINT('',(-0.4,5.65,8.43769498715119E-15));
#2360=DIRECTION('',(1.,0.,0.));
#2370=DIRECTION('',(0.,0.,-1.));
#2380=AXIS2_PLACEMENT_3D('',#2350,#2360,#2370);
#2390=PLANE('',#2380);
#2400=CARTESIAN_POINT('',(-0.4,5.30000000000001,-2.21415502727387));
#2410=CARTESIAN_POINT('',(-0.4,5.36101253371865,-2.27615518449846));
#2420=CARTESIAN_POINT('',(-0.4,5.48313425341436,-2.40006022256035));
#2430=CARTESIAN_POINT('',(-0.4,5.66645617779872,-2.58578044466734));
#2440=CARTESIAN_POINT('',(-0.4,5.78880954681402,-2.70945672402737));
#2450=CARTESIAN_POINT('',(-0.4,5.85,-2.7712812921102));
#2460=B_SPLINE_CURVE_WITH_KNOTS('',3,(#2400,#2410,#2420,#2430,#2440,
#2450),.UNSPECIFIED.,.F.,.F.,(4,1,1,4),(0.,0.333333333333333,
0.666666666666667,1.),.UNSPECIFIED.);
#2470=CARTESIAN_POINT('',(-0.4,5.85,-2.77128129211019));
#2480=VERTEX_POINT('',#2470);
#2490=EDGE_CURVE('',#2070,#2480,#2460,.T.);
#2500=ORIENTED_EDGE('',*,*,#2490,.T.);
#2510=ORIENTED_EDGE('',*,*,#2080,.T.);
#2520=CARTESIAN_POINT('',(-0.4,5.85,2.77128129211022));
#2530=CARTESIAN_POINT('',(-0.4,5.78880954684204,2.7094567240557));
#2540=CARTESIAN_POINT('',(-0.4,5.66645604606184,2.58578083816771));
#2550=CARTESIAN_POINT('',(-0.4,5.48313471478729,2.40005884560671));
#2560=CARTESIAN_POINT('',(-0.4,5.36101154523018,2.27615813528364));
#2570=CARTESIAN_POINT('',(-0.4,5.3,2.2141589825484));
#2580=B_SPLINE_CURVE_WITH_KNOTS('',3,(#2520,#2530,#2540,#2550,#2560,
#2570),.UNSPECIFIED.,.F.,.F.,(4,1,1,4),(0.,0.333333333333333,
0.666666666666667,1.),.UNSPECIFIED.);
#2590=CARTESIAN_POINT('',(-0.399999999999999,5.85000000000001,
2.77128129211019));
#2600=VERTEX_POINT('',#2590);
#2610=EDGE_CURVE('',#2600,#1970,#2580,.T.);
#2620=ORIENTED_EDGE('',*,*,#2610,.T.);
#2630=CARTESIAN_POINT('',(-0.399999999999999,6.,2.77128129211019));
#2640=DIRECTION('',(0.,-1.,0.));
#2650=VECTOR('',#2640,1.);
#2660=LINE('',#2630,#2650);
#2670=EDGE_CURVE('',#1670,#2600,#2660,.T.);
#2680=ORIENTED_EDGE('',*,*,#2670,.T.);
#2690=ORIENTED_EDGE('',*,*,#1740,.T.);
#2700=CARTESIAN_POINT('',(-0.399999999999999,5.85,-2.77128129211019));
#2710=DIRECTION('',(0.,1.,0.));
#2720=VECTOR('',#2710,1.);
#2730=LINE('',#2700,#2720);
#2740=EDGE_CURVE('',#2480,#1650,#2730,.T.);
#2750=ORIENTED_EDGE('',*,*,#2740,.T.);
#2760=EDGE_LOOP('',(#2750,#2690,#2680,#2620,#2510,#2500));
#2770=FACE_OUTER_BOUND('',#2760,.T.);
#2780=ADVANCED_FACE('',(#2770),#2390,.T.);
#2790=COLOUR_RGB('',1.,1.,1.);
#2800=FILL_AREA_STYLE_COLOUR('',#2790);
#2810=FILL_AREA_STYLE('',(#2800));
#2820=SURFACE_STYLE_FILL_AREA(#2810);
#2830=SURFACE_SIDE_STYLE('',(#2820));
#2840=SURFACE_STYLE_USAGE(.BOTH.,#2830);
#2850=PRESENTATION_STYLE_ASSIGNMENT((#2840));
#2860=CARTESIAN_POINT('',(1.62092561595273E-14,5.925,0.));
#2870=DIRECTION('',(0.,1.,0.));
#2880=DIRECTION('',(1.,0.,0.));
#2890=AXIS2_PLACEMENT_3D('',#2860,#2870,#2880);
#2900=CYLINDRICAL_SURFACE('',#2890,2.79999999999999);
#2910=CARTESIAN_POINT('',(1.62092561595273E-14,5.85,0.));
#2920=DIRECTION('',(2.23494692140868E-14,1.,-2.09302061104169E-17));
#2930=DIRECTION('',(-0.142857142857149,3.17206578464332E-15,
-0.989743318610786));
#2940=AXIS2_PLACEMENT_3D('',#2910,#2920,#2930);
#2950=CIRCLE('',#2940,2.79999999999999);
#2960=CARTESIAN_POINT('',(-2.79999999999998,5.85000000000006,
-3.42901103761258E-16));
#2970=VERTEX_POINT('',#2960);
#2980=EDGE_CURVE('',#2970,#2600,#2950,.T.);
#2990=ORIENTED_EDGE('',*,*,#2980,.T.);
#3000=EDGE_CURVE('',#2480,#2970,#2950,.T.);
#3010=ORIENTED_EDGE('',*,*,#3000,.T.);
#3020=ORIENTED_EDGE('',*,*,#2740,.F.);
#3030=ORIENTED_EDGE('',*,*,#1680,.F.);
#3040=ORIENTED_EDGE('',*,*,#2670,.F.);
#3050=EDGE_LOOP('',(#3040,#3030,#3020,#3010,#2990));
#3060=FACE_OUTER_BOUND('',#3050,.T.);
#3070=ADVANCED_FACE('',(#3060),#2900,.T.);
#3080=COLOUR_RGB('',1.,1.,1.);
#3090=FILL_AREA_STYLE_COLOUR('',#3080);
#3100=FILL_AREA_STYLE('',(#3090));
#3110=SURFACE_STYLE_FILL_AREA(#3100);
#3120=SURFACE_SIDE_STYLE('',(#3110));
#3130=SURFACE_STYLE_USAGE(.BOTH.,#3120);
#3140=PRESENTATION_STYLE_ASSIGNMENT((#3130));
#3150=CARTESIAN_POINT('',(-2.40252262528887E-14,4.04999999999999,0.));
#3160=DIRECTION('',(2.23524902291198E-14,1.,0.));
#3170=DIRECTION('',(1.,-2.23524902291198E-14,0.));
#3180=AXIS2_PLACEMENT_3D('',#3150,#3160,#3170);
#3190=CONICAL_SURFACE('',#3180,1.,0.785398163397442);
#3200=CARTESIAN_POINT('',(0.4,5.84999999999999,-2.77128129211022));
#3210=CARTESIAN_POINT('',(0.4,5.7888095523759,-2.70945672964691));
#3220=CARTESIAN_POINT('',(0.4,5.6664708601278,-2.58576620284266));
#3230=CARTESIAN_POINT('',(0.4,5.48311688973977,-2.4000764284119));
#3240=CARTESIAN_POINT('',(0.4,5.36101155249986,-2.276158142671));
#3250=CARTESIAN_POINT('',(0.4,5.3,-2.2141589825484));
#3260=B_SPLINE_CURVE_WITH_KNOTS('',3,(#3200,#3210,#3220,#3230,#3240,
#3250),.UNSPECIFIED.,.F.,.F.,(4,1,1,4),(0.,0.333333333333333,
0.666666666666667,1.),.UNSPECIFIED.);
#3270=CARTESIAN_POINT('',(0.399999999999998,5.84999999999999,
-2.7712812921102));
#3280=VERTEX_POINT('',#3270);
#3290=EDGE_CURVE('',#3280,#2160,#3260,.T.);
#3300=ORIENTED_EDGE('',*,*,#3290,.F.);
#3310=ORIENTED_EDGE('',*,*,#2170,.F.);
#3320=ORIENTED_EDGE('',*,*,#2490,.F.);
#3330=ORIENTED_EDGE('',*,*,#3000,.F.);
#3340=CARTESIAN_POINT('',(-1.00000000000002,4.05000000000001,
-1.22464679914735E-16));
#3350=DIRECTION('',(-0.707106781186527,0.707106781186568,
-8.65956056235488E-17));
#3360=VECTOR('',#3350,1.4142135623731);
#3370=LINE('',#3340,#3360);
#3380=EDGE_CURVE('',#660,#2970,#3370,.T.);
#3390=ORIENTED_EDGE('',*,*,#3380,.T.);
#3400=ORIENTED_EDGE('',*,*,#690,.F.);
#3410=CARTESIAN_POINT('',(0.999999999999976,4.04999999999997,0.));
#3420=DIRECTION('',(0.707106781186559,0.707106781186536,0.));
#3430=VECTOR('',#3420,1.4142135623731);
#3440=LINE('',#3410,#3430);
#3450=CARTESIAN_POINT('',(2.80000000000001,5.84999999999994,0.));
#3460=VERTEX_POINT('',#3450);
#3470=EDGE_CURVE('',#680,#3460,#3440,.T.);
#3480=ORIENTED_EDGE('',*,*,#3470,.F.);
#3490=CARTESIAN_POINT('',(1.62092561595273E-14,5.85,0.));
#3500=DIRECTION('',(2.23494692140868E-14,1.,-2.09302061101562E-17));
#3510=DIRECTION('',(0.142857142857137,-3.17206578464331E-15,
0.989743318610788));
#3520=AXIS2_PLACEMENT_3D('',#3490,#3500,#3510);
#3530=CIRCLE('',#3520,2.79999999999999);
#3540=EDGE_CURVE('',#3460,#3280,#3530,.T.);
#3550=ORIENTED_EDGE('',*,*,#3540,.F.);
#3560=EDGE_LOOP('',(#3550,#3480,#3400,#3390,#3330,#3320,#3310,#3300));
#3570=FACE_OUTER_BOUND('',#3560,.T.);
#3580=ADVANCED_FACE('',(#3570),#3190,.T.);
#3590=COLOUR_RGB('',1.,1.,1.);
#3600=FILL_AREA_STYLE_COLOUR('',#3590);
#3610=FILL_AREA_STYLE('',(#3600));
#3620=SURFACE_STYLE_FILL_AREA(#3610);
#3630=SURFACE_SIDE_STYLE('',(#3620));
#3640=SURFACE_STYLE_USAGE(.BOTH.,#3630);
#3650=PRESENTATION_STYLE_ASSIGNMENT((#3640));
#3660=CARTESIAN_POINT('',(2.13717932240343E-14,0.,4.44089209850063E-16))
;
#3670=DIRECTION('',(0.,1.,0.));
#3680=DIRECTION('',(0.,0.,1.));
#3690=AXIS2_PLACEMENT_3D('',#3660,#3670,#3680);
#3700=PLANE('',#3690);
#3710=ORIENTED_EDGE('',*,*,#1030,.F.);
#3720=EDGE_CURVE('',#930,#1020,#1000,.T.);
#3730=ORIENTED_EDGE('',*,*,#3720,.F.);
#3740=EDGE_LOOP('',(#3730,#3710));
#3750=FACE_OUTER_BOUND('',#3740,.T.);
#3760=ADVANCED_FACE('',(#3750),#3700,.F.);
#3770=COLOUR_RGB('',1.,1.,1.);
#3780=FILL_AREA_STYLE_COLOUR('',#3770);
#3790=FILL_AREA_STYLE('',(#3780));
#3800=SURFACE_STYLE_FILL_AREA(#3790);
#3810=SURFACE_SIDE_STYLE('',(#3800));
#3820=SURFACE_STYLE_USAGE(.BOTH.,#3810);
#3830=PRESENTATION_STYLE_ASSIGNMENT((#3820));
#3840=CARTESIAN_POINT('',(1.62092561595273E-14,5.925,0.));
#3850=DIRECTION('',(0.,1.,0.));
#3860=DIRECTION('',(1.,0.,0.));
#3870=AXIS2_PLACEMENT_3D('',#3840,#3850,#3860);
#3880=CYLINDRICAL_SURFACE('',#3870,2.79999999999999);
#3890=ORIENTED_EDGE('',*,*,#1360,.F.);
#3900=CARTESIAN_POINT('',(0.4,6.,-2.7712812921102));
#3910=DIRECTION('',(0.,-1.,0.));
#3920=VECTOR('',#3910,1.);
#3930=LINE('',#3900,#3920);
#3940=EDGE_CURVE('',#1350,#3280,#3930,.T.);
#3950=ORIENTED_EDGE('',*,*,#3940,.F.);
#3960=ORIENTED_EDGE('',*,*,#3540,.T.);
#3970=CARTESIAN_POINT('',(0.4,5.85,2.77128129211021));
#3980=VERTEX_POINT('',#3970);
#3990=EDGE_CURVE('',#3980,#3460,#3530,.T.);
#4000=ORIENTED_EDGE('',*,*,#3990,.T.);
#4010=CARTESIAN_POINT('',(0.399999999999998,5.85,2.7712812921102));
#4020=DIRECTION('',(0.,1.,0.));
#4030=VECTOR('',#4020,1.);
#4040=LINE('',#4010,#4030);
#4050=EDGE_CURVE('',#3980,#1330,#4040,.T.);
#4060=ORIENTED_EDGE('',*,*,#4050,.F.);
#4070=EDGE_LOOP('',(#4060,#4000,#3960,#3950,#3890));
#4080=FACE_OUTER_BOUND('',#4070,.T.);
#4090=ADVANCED_FACE('',(#4080),#3880,.T.);
#4100=COLOUR_RGB('',1.,1.,1.);
#4110=FILL_AREA_STYLE_COLOUR('',#4100);
#4120=FILL_AREA_STYLE('',(#4110));
#4130=SURFACE_STYLE_FILL_AREA(#4120);
#4140=SURFACE_SIDE_STYLE('',(#4130));
#4150=SURFACE_STYLE_USAGE(.BOTH.,#4140);
#4160=PRESENTATION_STYLE_ASSIGNMENT((#4150));
#4170=CARTESIAN_POINT('',(0.4,5.65,-7.99360577730113E-15));
#4180=DIRECTION('',(1.,0.,0.));
#4190=DIRECTION('',(-0.,0.,1.));
#4200=AXIS2_PLACEMENT_3D('',#4170,#4180,#4190);
#4210=PLANE('',#4200);
#4220=CARTESIAN_POINT('',(0.4,5.30000000000001,2.21415502727387));
#4230=CARTESIAN_POINT('',(0.4,5.36101254108599,2.27615519198505));
#4240=CARTESIAN_POINT('',(0.4,5.48311642832057,2.40007780531854));
#4250=CARTESIAN_POINT('',(0.4,5.66647099187713,2.58576580935502));
#4260=CARTESIAN_POINT('',(0.4,5.78880955234765,2.70945672961834));
#4270=CARTESIAN_POINT('',(0.4,5.85,2.7712812921102));
#4280=B_SPLINE_CURVE_WITH_KNOTS('',3,(#4220,#4230,#4240,#4250,#4260,
#4270),.UNSPECIFIED.,.F.,.F.,(4,1,1,4),(0.,0.333333333333333,
0.666666666666667,1.),.UNSPECIFIED.);
#4290=EDGE_CURVE('',#1990,#3980,#4280,.T.);
#4300=ORIENTED_EDGE('',*,*,#4290,.T.);
#4310=ORIENTED_EDGE('',*,*,#2230,.T.);
#4320=ORIENTED_EDGE('',*,*,#3290,.T.);
#4330=ORIENTED_EDGE('',*,*,#3940,.T.);
#4340=ORIENTED_EDGE('',*,*,#1420,.T.);
#4350=ORIENTED_EDGE('',*,*,#4050,.T.);
#4360=EDGE_LOOP('',(#4350,#4340,#4330,#4320,#4310,#4300));
#4370=FACE_OUTER_BOUND('',#4360,.T.);
#4380=ADVANCED_FACE('',(#4370),#4210,.F.);
#4390=COLOUR_RGB('',1.,1.,1.);
#4400=FILL_AREA_STYLE_COLOUR('',#4390);
#4410=FILL_AREA_STYLE('',(#4400));
#4420=SURFACE_STYLE_FILL_AREA(#4410);
#4430=SURFACE_SIDE_STYLE('',(#4420));
#4440=SURFACE_STYLE_USAGE(.BOTH.,#4430);
#4450=PRESENTATION_STYLE_ASSIGNMENT((#4440));
#4460=CARTESIAN_POINT('',(5.00599561803472E-14,3.35000000000004,0.));
#4470=DIRECTION('',(-2.65121258280487E-14,1.,0.));
#4480=DIRECTION('',(1.,2.65121258280487E-14,0.));
#4490=AXIS2_PLACEMENT_3D('',#4460,#4470,#4480);
#4500=CONICAL_SURFACE('',#4490,1.00000000000001,0.785398163397455);
#4510=ORIENTED_EDGE('',*,*,#140,.T.);
#4520=EDGE_CURVE('',#110,#300,#370,.T.);
#4530=ORIENTED_EDGE('',*,*,#4520,.F.);
#4540=ORIENTED_EDGE('',*,*,#310,.F.);
#4550=ORIENTED_EDGE('',*,*,#560,.F.);
#4560=EDGE_LOOP('',(#4550,#4540,#4530,#4510));
#4570=FACE_OUTER_BOUND('',#4560,.T.);
#4580=ADVANCED_FACE('',(#4570),#4500,.T.);
#4590=COLOUR_RGB('',1.,1.,1.);
#4600=FILL_AREA_STYLE_COLOUR('',#4590);
#4610=FILL_AREA_STYLE('',(#4600));
#4620=SURFACE_STYLE_FILL_AREA(#4610);
#4630=SURFACE_SIDE_STYLE('',(#4620));
#4640=SURFACE_STYLE_USAGE(.BOTH.,#4630);
#4650=PRESENTATION_STYLE_ASSIGNMENT((#4640));
#4660=CARTESIAN_POINT('',(-2.40252262528887E-14,4.04999999999999,0.));
#4670=DIRECTION('',(2.23524902291198E-14,1.,0.));
#4680=DIRECTION('',(1.,-2.23524902291198E-14,0.));
#4690=AXIS2_PLACEMENT_3D('',#4660,#4670,#4680);
#4700=CONICAL_SURFACE('',#4690,1.,0.785398163397442);
#4710=ORIENTED_EDGE('',*,*,#3380,.F.);
#4720=ORIENTED_EDGE('',*,*,#2980,.F.);
#4730=ORIENTED_EDGE('',*,*,#2610,.F.);
#4740=ORIENTED_EDGE('',*,*,#2000,.F.);
#4750=ORIENTED_EDGE('',*,*,#4290,.F.);
#4760=ORIENTED_EDGE('',*,*,#3990,.F.);
#4770=ORIENTED_EDGE('',*,*,#3470,.T.);
#4780=ORIENTED_EDGE('',*,*,#710,.F.);
#4790=EDGE_LOOP('',(#4780,#4770,#4760,#4750,#4740,#4730,#4720,#4710));
#4800=FACE_OUTER_BOUND('',#4790,.T.);
#4810=ADVANCED_FACE('',(#4800),#4700,.T.);
#4820=COLOUR_RGB('',1.,1.,1.);
#4830=FILL_AREA_STYLE_COLOUR('',#4820);
#4840=FILL_AREA_STYLE('',(#4830));
#4850=SURFACE_STYLE_FILL_AREA(#4840);
#4860=SURFACE_SIDE_STYLE('',(#4850));
#4870=SURFACE_STYLE_USAGE(.BOTH.,#4860);
#4880=PRESENTATION_STYLE_ASSIGNMENT((#4870));
#4890=CARTESIAN_POINT('',(3.66928709638614E-14,2.075,
1.11022302462516E-16));
#4900=DIRECTION('',(0.,1.,0.));
#4910=DIRECTION('',(1.,0.,-7.40148683083456E-17));
#4920=AXIS2_PLACEMENT_3D('',#4890,#4900,#4910);
#4930=CYLINDRICAL_SURFACE('',#4920,1.49999999999996);
#4940=ORIENTED_EDGE('',*,*,#940,.F.);
#4950=ORIENTED_EDGE('',*,*,#4520,.T.);
#4960=ORIENTED_EDGE('',*,*,#1090,.T.);
#4970=ORIENTED_EDGE('',*,*,#3720,.T.);
#4980=EDGE_LOOP('',(#4970,#4960,#4950,#4940));
#4990=FACE_OUTER_BOUND('',#4980,.T.);
#5000=ADVANCED_FACE('',(#4990),#4930,.T.);
#5010=COLOUR_RGB('',1.,1.,1.);
#5020=FILL_AREA_STYLE_COLOUR('',#5010);
#5030=FILL_AREA_STYLE('',(#5020));
#5040=SURFACE_STYLE_FILL_AREA(#5030);
#5050=SURFACE_SIDE_STYLE('',(#5040));
#5060=SURFACE_STYLE_USAGE(.BOTH.,#5050);
#5070=PRESENTATION_STYLE_ASSIGNMENT((#5060));
#5080=CLOSED_SHELL('',(#420,#750,#1140,#1460,#1780,#2270,#2780,#3070,
#3580,#3760,#4090,#4380,#4580,#4810,#5000));
#5090=MANIFOLD_SOLID_BREP('',#5080);
#5100=CARTESIAN_POINT('',(0.,0.,0.));
#5110=DIRECTION('',(0.,0.,1.));
#5120=DIRECTION('',(1.,0.,0.));
#5130=AXIS2_PLACEMENT_3D('',#5100,#5110,#5120);
#5140=APPLICATION_CONTEXT(' ');
#5150=APPLICATION_PROTOCOL_DEFINITION(' ','automotive_design',1998,#5140
);
#5160=PRODUCT_CONTEXT('',#5140,'mechanical');
#5170=PRODUCT_DEFINITION_CONTEXT('part definition',#5140,'design');
#5180=PRODUCT('1686229_HC_D_7_DS_IP65-select',
'1686229_HC_D_7_DS_IP65-select','',(#5160));
#5190=PRODUCT_RELATED_PRODUCT_CATEGORY('part',' ',(#5180));
#5200=PRODUCT_DEFINITION_FORMATION_WITH_SPECIFIED_SOURCE('','',#5180,
.BOUGHT.);
#5210=PRODUCT_DEFINITION('',' ',#5200,#5170);
#5220=PRODUCT_DEFINITION_SHAPE('','',#5210);
#5230=DIMENSIONAL_EXPONENTS(1.,0.,0.,0.,0.,0.,0.);
#5240=DIMENSIONAL_EXPONENTS(0.,0.,0.,0.,0.,0.,0.);
#5250=DIMENSIONAL_EXPONENTS(0.,0.,0.,0.,0.,0.,0.);
#5260=(LENGTH_UNIT() NAMED_UNIT(*) SI_UNIT(.MILLI.,.METRE.));
#5270=(NAMED_UNIT(*) PLANE_ANGLE_UNIT() SI_UNIT($,.RADIAN.));
#5280=(NAMED_UNIT(*) SI_UNIT($,.STERADIAN.) SOLID_ANGLE_UNIT());
#5290=(GEOMETRIC_REPRESENTATION_CONTEXT(3) 
GLOBAL_UNCERTAINTY_ASSIGNED_CONTEXT((#5300)) 
GLOBAL_UNIT_ASSIGNED_CONTEXT((#5260,#5270,#5280)) REPRESENTATION_CONTEXT
('',''));
#5300=UNCERTAINTY_MEASURE_WITH_UNIT(LENGTH_MEASURE(0.00099),#5260,
'distance_accuracy_value','maximum gap value');
#5310=ADVANCED_BREP_SHAPE_REPRESENTATION('',(#5130,#5090),#5290);
#5320=SHAPE_DEFINITION_REPRESENTATION(#5220,#5310);
#5330=COLOUR_RGB('',1.,1.,1.);
#5340=FILL_AREA_STYLE_COLOUR('',#5330);
#5350=FILL_AREA_STYLE('',(#5340));
#5360=SURFACE_STYLE_FILL_AREA(#5350);
#5370=SURFACE_SIDE_STYLE('',(#5360));
#5380=SURFACE_STYLE_USAGE(.BOTH.,#5370);
#5390=PRESENTATION_STYLE_ASSIGNMENT((#5380));
#5400=STYLED_ITEM('',(#5390),#5090);
#5410=OVER_RIDING_STYLED_ITEM('',(#490),#420,#5400);
#5420=OVER_RIDING_STYLED_ITEM('',(#820),#750,#5400);
#5430=OVER_RIDING_STYLED_ITEM('',(#1210),#1140,#5400);
#5440=OVER_RIDING_STYLED_ITEM('',(#1530),#1460,#5400);
#5450=OVER_RIDING_STYLED_ITEM('',(#1850),#1780,#5400);
#5460=OVER_RIDING_STYLED_ITEM('',(#2340),#2270,#5400);
#5470=OVER_RIDING_STYLED_ITEM('',(#2850),#2780,#5400);
#5480=OVER_RIDING_STYLED_ITEM('',(#3140),#3070,#5400);
#5490=OVER_RIDING_STYLED_ITEM('',(#3650),#3580,#5400);
#5500=OVER_RIDING_STYLED_ITEM('',(#3830),#3760,#5400);
#5510=OVER_RIDING_STYLED_ITEM('',(#4160),#4090,#5400);
#5520=OVER_RIDING_STYLED_ITEM('',(#4450),#4380,#5400);
#5530=OVER_RIDING_STYLED_ITEM('',(#4650),#4580,#5400);
#5540=OVER_RIDING_STYLED_ITEM('',(#4880),#4810,#5400);
#5550=OVER_RIDING_STYLED_ITEM('',(#5070),#5000,#5400);
#5560=DRAUGHTING_MODEL('',(#5400,#5410,#5420,#5430,#5440,#5450,#5460,
#5470,#5480,#5490,#5500,#5510,#5520,#5530,#5540,#5550),#5290);
ENDSEC;
END-ISO-10303-21;
