ISO-10303-21;
HEADER;
FILE_DESCRIPTION(('SolidDesigner STEP Export'),'2;1');
FILE_NAME('1415219_A_INE_PG13_16_N_NS_S-select.stp',
'2015-01-14T11:26:54',(''),(''),
'Creo Elements/Direct Modeling STEP processor for AP214 (Solid Model)',
'Creo Elements/Direct Modeling 18.1B  29-Sep-2012 (C) Parametric Technol
ogy GmbH','');
FILE_SCHEMA(('AUTOMOTIVE_DESIGN { 1 0 10303 214 1 1 1 1 }'));
ENDSEC;
DATA;
#10=CARTESIAN_POINT('',(-19.,11.625,0.));
#20=DIRECTION('',(-1.,0.,0.));
#30=DIRECTION('',(0.,1.,0.));
#40=AXIS2_PLACEMENT_3D('',#10,#20,#30);
#50=PLANE('',#40);
#60=CARTESIAN_POINT('',(-19.,2.4980018054066E-16,0.));
#70=DIRECTION('',(1.,0.,0.));
#80=DIRECTION('',(0.,1.,0.));
#90=AXIS2_PLACEMENT_3D('',#60,#70,#80);
#100=CIRCLE('',#90,11.25);
#110=CARTESIAN_POINT('',(-19.,11.25,-1.37772764904077E-15));
#120=VERTEX_POINT('',#110);
#130=CARTESIAN_POINT('',(-19.,-11.25,0.));
#140=VERTEX_POINT('',#130);
#150=EDGE_CURVE('',#120,#140,#100,.T.);
#160=ORIENTED_EDGE('',*,*,#150,.T.);
#170=EDGE_CURVE('',#140,#120,#100,.T.);
#180=ORIENTED_EDGE('',*,*,#170,.T.);
#190=EDGE_LOOP('',(#180,#160));
#200=FACE_BOUND('',#190,.T.);
#210=CARTESIAN_POINT('',(-19.,2.4980018054066E-16,0.));
#220=DIRECTION('',(1.,0.,0.));
#230=DIRECTION('',(0.,1.,0.));
#240=AXIS2_PLACEMENT_3D('',#210,#220,#230);
#250=CIRCLE('',#240,12.);
#260=CARTESIAN_POINT('',(-19.,12.,0.));
#270=VERTEX_POINT('',#260);
#280=CARTESIAN_POINT('',(-19.,-12.,-1.46957615897682E-15));
#290=VERTEX_POINT('',#280);
#300=EDGE_CURVE('',#270,#290,#250,.T.);
#310=ORIENTED_EDGE('',*,*,#300,.F.);
#320=EDGE_CURVE('',#290,#270,#250,.T.);
#330=ORIENTED_EDGE('',*,*,#320,.F.);
#340=EDGE_LOOP('',(#330,#310));
#350=FACE_OUTER_BOUND('',#340,.T.);
#360=ADVANCED_FACE('',(#200,#350),#50,.T.);
#370=COLOUR_RGB('',0.831372618675232,0.850980460643768,0.858823597431183
);
#380=FILL_AREA_STYLE_COLOUR('',#370);
#390=FILL_AREA_STYLE('',(#380));
#400=SURFACE_STYLE_FILL_AREA(#390);
#410=SURFACE_SIDE_STYLE('',(#400));
#420=SURFACE_STYLE_USAGE(.BOTH.,#410);
#430=PRESENTATION_STYLE_ASSIGNMENT((#420));
#440=CARTESIAN_POINT('',(-13.75,2.4980018054066E-16,0.));
#450=DIRECTION('',(1.,0.,0.));
#460=DIRECTION('',(0.,-1.,0.));
#470=AXIS2_PLACEMENT_3D('',#440,#450,#460);
#480=CYLINDRICAL_SURFACE('',#470,11.25);
#490=CARTESIAN_POINT('',(-13.75,-11.25,0.));
#500=DIRECTION('',(1.,0.,0.));
#510=VECTOR('',#500,1.);
#520=LINE('',#490,#510);
#530=CARTESIAN_POINT('',(-8.5,-11.25,0.));
#540=VERTEX_POINT('',#530);
#550=EDGE_CURVE('',#140,#540,#520,.T.);
#560=ORIENTED_EDGE('',*,*,#550,.T.);
#570=ORIENTED_EDGE('',*,*,#170,.F.);
#580=CARTESIAN_POINT('',(-13.75,11.25,-1.37772764904077E-15));
#590=DIRECTION('',(1.,0.,0.));
#600=VECTOR('',#590,1.);
#610=LINE('',#580,#600);
#620=CARTESIAN_POINT('',(-8.5,11.25,-1.37772764904077E-15));
#630=VERTEX_POINT('',#620);
#640=EDGE_CURVE('',#120,#630,#610,.T.);
#650=ORIENTED_EDGE('',*,*,#640,.F.);
#660=CARTESIAN_POINT('',(-8.5,2.4980018054066E-16,0.));
#670=DIRECTION('',(1.,0.,0.));
#680=DIRECTION('',(0.,1.,0.));
#690=AXIS2_PLACEMENT_3D('',#660,#670,#680);
#700=CIRCLE('',#690,11.25);
#710=EDGE_CURVE('',#540,#630,#700,.T.);
#720=ORIENTED_EDGE('',*,*,#710,.T.);
#730=EDGE_LOOP('',(#720,#650,#570,#560));
#740=FACE_OUTER_BOUND('',#730,.T.);
#750=ADVANCED_FACE('',(#740),#480,.F.);
#760=COLOUR_RGB('',0.831372618675232,0.850980460643768,0.858823597431183
);
#770=FILL_AREA_STYLE_COLOUR('',#760);
#780=FILL_AREA_STYLE('',(#770));
#790=SURFACE_STYLE_FILL_AREA(#780);
#800=SURFACE_SIDE_STYLE('',(#790));
#810=SURFACE_STYLE_USAGE(.BOTH.,#800);
#820=PRESENTATION_STYLE_ASSIGNMENT((#810));
#830=CARTESIAN_POINT('',(-8.5,9.875,0.));
#840=DIRECTION('',(1.,0.,0.));
#850=DIRECTION('',(0.,-1.,0.));
#860=AXIS2_PLACEMENT_3D('',#830,#840,#850);
#870=PLANE('',#860);
#880=CARTESIAN_POINT('',(-8.5,2.4980018054066E-16,0.));
#890=DIRECTION('',(1.,0.,0.));
#900=DIRECTION('',(0.,1.,0.));
#910=AXIS2_PLACEMENT_3D('',#880,#890,#900);
#920=CIRCLE('',#910,8.5);
#930=CARTESIAN_POINT('',(-8.5,8.5,-1.04094977927525E-15));
#940=VERTEX_POINT('',#930);
#950=CARTESIAN_POINT('',(-8.5,-8.5,0.));
#960=VERTEX_POINT('',#950);
#970=EDGE_CURVE('',#940,#960,#920,.T.);
#980=ORIENTED_EDGE('',*,*,#970,.T.);
#990=EDGE_CURVE('',#960,#940,#920,.T.);
#1000=ORIENTED_EDGE('',*,*,#990,.T.);
#1010=EDGE_LOOP('',(#1000,#980));
#1020=FACE_BOUND('',#1010,.T.);
#1030=EDGE_CURVE('',#630,#540,#700,.T.);
#1040=ORIENTED_EDGE('',*,*,#1030,.F.);
#1050=ORIENTED_EDGE('',*,*,#710,.F.);
#1060=EDGE_LOOP('',(#1050,#1040));
#1070=FACE_OUTER_BOUND('',#1060,.T.);
#1080=ADVANCED_FACE('',(#1020,#1070),#870,.F.);
#1090=COLOUR_RGB('',0.831372618675232,0.850980460643768,
0.858823597431183);
#1100=FILL_AREA_STYLE_COLOUR('',#1090);
#1110=FILL_AREA_STYLE('',(#1100));
#1120=SURFACE_STYLE_FILL_AREA(#1110);
#1130=SURFACE_SIDE_STYLE('',(#1120));
#1140=SURFACE_STYLE_USAGE(.BOTH.,#1130);
#1150=PRESENTATION_STYLE_ASSIGNMENT((#1140));
#1160=CARTESIAN_POINT('',(-4.25,2.4980018054066E-16,0.));
#1170=DIRECTION('',(1.,0.,0.));
#1180=DIRECTION('',(0.,-1.,0.));
#1190=AXIS2_PLACEMENT_3D('',#1160,#1170,#1180);
#1200=CYLINDRICAL_SURFACE('',#1190,8.5);
#1210=CARTESIAN_POINT('',(-4.25,-8.5,0.));
#1220=DIRECTION('',(1.,0.,0.));
#1230=VECTOR('',#1220,1.);
#1240=LINE('',#1210,#1230);
#1250=CARTESIAN_POINT('',(0.,-8.5,0.));
#1260=VERTEX_POINT('',#1250);
#1270=EDGE_CURVE('',#960,#1260,#1240,.T.);
#1280=ORIENTED_EDGE('',*,*,#1270,.T.);
#1290=ORIENTED_EDGE('',*,*,#990,.F.);
#1300=CARTESIAN_POINT('',(-4.25,8.5,-1.04094977927525E-15));
#1310=DIRECTION('',(1.,0.,0.));
#1320=VECTOR('',#1310,1.);
#1330=LINE('',#1300,#1320);
#1340=CARTESIAN_POINT('',(0.,8.5,-1.04094977927525E-15));
#1350=VERTEX_POINT('',#1340);
#1360=EDGE_CURVE('',#940,#1350,#1330,.T.);
#1370=ORIENTED_EDGE('',*,*,#1360,.F.);
#1380=CARTESIAN_POINT('',(0.,2.4980018054066E-16,0.));
#1390=DIRECTION('',(1.,0.,0.));
#1400=DIRECTION('',(0.,1.,0.));
#1410=AXIS2_PLACEMENT_3D('',#1380,#1390,#1400);
#1420=CIRCLE('',#1410,8.5);
#1430=EDGE_CURVE('',#1260,#1350,#1420,.T.);
#1440=ORIENTED_EDGE('',*,*,#1430,.T.);
#1450=EDGE_LOOP('',(#1440,#1370,#1290,#1280));
#1460=FACE_OUTER_BOUND('',#1450,.T.);
#1470=ADVANCED_FACE('',(#1460),#1200,.F.);
#1480=COLOUR_RGB('',0.831372618675232,0.850980460643768,
0.858823597431183);
#1490=FILL_AREA_STYLE_COLOUR('',#1480);
#1500=FILL_AREA_STYLE('',(#1490));
#1510=SURFACE_STYLE_FILL_AREA(#1500);
#1520=SURFACE_SIDE_STYLE('',(#1510));
#1530=SURFACE_STYLE_USAGE(.BOTH.,#1520);
#1540=PRESENTATION_STYLE_ASSIGNMENT((#1530));
#1550=CARTESIAN_POINT('',(0.,9.35,0.));
#1560=DIRECTION('',(-1.,0.,0.));
#1570=DIRECTION('',(0.,1.,0.));
#1580=AXIS2_PLACEMENT_3D('',#1550,#1560,#1570);
#1590=PLANE('',#1580);
#1600=CARTESIAN_POINT('',(0.,2.4980018054066E-16,0.));
#1610=DIRECTION('',(1.,0.,0.));
#1620=DIRECTION('',(0.,1.,0.));
#1630=AXIS2_PLACEMENT_3D('',#1600,#1610,#1620);
#1640=CIRCLE('',#1630,10.2);
#1650=CARTESIAN_POINT('',(0.,10.2,0.));
#1660=VERTEX_POINT('',#1650);
#1670=CARTESIAN_POINT('',(0.,-10.2,-1.2491397351303E-15));
#1680=VERTEX_POINT('',#1670);
#1690=EDGE_CURVE('',#1660,#1680,#1640,.T.);
#1700=ORIENTED_EDGE('',*,*,#1690,.T.);
#1710=EDGE_CURVE('',#1680,#1660,#1640,.T.);
#1720=ORIENTED_EDGE('',*,*,#1710,.T.);
#1730=EDGE_LOOP('',(#1720,#1700));
#1740=FACE_OUTER_BOUND('',#1730,.T.);
#1750=EDGE_CURVE('',#1350,#1260,#1420,.T.);
#1760=ORIENTED_EDGE('',*,*,#1750,.F.);
#1770=ORIENTED_EDGE('',*,*,#1430,.F.);
#1780=EDGE_LOOP('',(#1770,#1760));
#1790=FACE_BOUND('',#1780,.T.);
#1800=ADVANCED_FACE('',(#1740,#1790),#1590,.F.);
#1810=COLOUR_RGB('',0.831372618675232,0.850980460643768,
0.858823597431183);
#1820=FILL_AREA_STYLE_COLOUR('',#1810);
#1830=FILL_AREA_STYLE('',(#1820));
#1840=SURFACE_STYLE_FILL_AREA(#1830);
#1850=SURFACE_SIDE_STYLE('',(#1840));
#1860=SURFACE_STYLE_USAGE(.BOTH.,#1850);
#1870=PRESENTATION_STYLE_ASSIGNMENT((#1860));
#1880=CARTESIAN_POINT('',(-3.25,2.4980018054066E-16,0.));
#1890=DIRECTION('',(-1.,0.,0.));
#1900=DIRECTION('',(0.,1.,0.));
#1910=AXIS2_PLACEMENT_3D('',#1880,#1890,#1900);
#1920=CYLINDRICAL_SURFACE('',#1910,10.2);
#1930=CARTESIAN_POINT('',(-3.25,10.2,0.));
#1940=DIRECTION('',(-1.,0.,0.));
#1950=VECTOR('',#1940,1.);
#1960=LINE('',#1930,#1950);
#1970=CARTESIAN_POINT('',(-5.,10.2,0.));
#1980=VERTEX_POINT('',#1970);
#1990=EDGE_CURVE('',#1660,#1980,#1960,.T.);
#2000=ORIENTED_EDGE('',*,*,#1990,.T.);
#2010=ORIENTED_EDGE('',*,*,#1690,.F.);
#2020=CARTESIAN_POINT('',(-3.25,-10.2,-1.2491397351303E-15));
#2030=DIRECTION('',(-1.,0.,0.));
#2040=VECTOR('',#2030,1.);
#2050=LINE('',#2020,#2040);
#2060=CARTESIAN_POINT('',(-5.,-10.2,-1.2491397351303E-15));
#2070=VERTEX_POINT('',#2060);
#2080=EDGE_CURVE('',#1680,#2070,#2050,.T.);
#2090=ORIENTED_EDGE('',*,*,#2080,.F.);
#2100=CARTESIAN_POINT('',(-5.,2.4980018054066E-16,0.));
#2110=DIRECTION('',(-1.,0.,0.));
#2120=DIRECTION('',(0.,1.,0.));
#2130=AXIS2_PLACEMENT_3D('',#2100,#2110,#2120);
#2140=CIRCLE('',#2130,10.2);
#2150=EDGE_CURVE('',#2070,#1980,#2140,.T.);
#2160=ORIENTED_EDGE('',*,*,#2150,.F.);
#2170=EDGE_LOOP('',(#2160,#2090,#2010,#2000));
#2180=FACE_OUTER_BOUND('',#2170,.T.);
#2190=ADVANCED_FACE('',(#2180),#1920,.T.);
#2200=COLOUR_RGB('',0.831372618675232,0.850980460643768,
0.858823597431183);
#2210=FILL_AREA_STYLE_COLOUR('',#2200);
#2220=FILL_AREA_STYLE('',(#2210));
#2230=SURFACE_STYLE_FILL_AREA(#2220);
#2240=SURFACE_SIDE_STYLE('',(#2230));
#2250=SURFACE_STYLE_USAGE(.BOTH.,#2240);
#2260=PRESENTATION_STYLE_ASSIGNMENT((#2250));
#2270=CARTESIAN_POINT('',(-6.5,11.1,0.));
#2280=DIRECTION('',(-1.,0.,0.));
#2290=DIRECTION('',(0.,1.,0.));
#2300=AXIS2_PLACEMENT_3D('',#2270,#2280,#2290);
#2310=PLANE('',#2300);
#2320=CARTESIAN_POINT('',(-6.5,0.,0.));
#2330=DIRECTION('',(-1.,0.,0.));
#2340=DIRECTION('',(0.,1.,0.));
#2350=AXIS2_PLACEMENT_3D('',#2320,#2330,#2340);
#2360=CIRCLE('',#2350,10.5);
#2370=CARTESIAN_POINT('',(-6.5,10.5,0.));
#2380=VERTEX_POINT('',#2370);
#2390=CARTESIAN_POINT('',(-6.5,-10.5,-1.28587913910472E-15));
#2400=VERTEX_POINT('',#2390);
#2410=EDGE_CURVE('',#2380,#2400,#2360,.T.);
#2420=ORIENTED_EDGE('',*,*,#2410,.T.);
#2430=EDGE_CURVE('',#2400,#2380,#2360,.T.);
#2440=ORIENTED_EDGE('',*,*,#2430,.T.);
#2450=EDGE_LOOP('',(#2440,#2420));
#2460=FACE_BOUND('',#2450,.T.);
#2470=CARTESIAN_POINT('',(-6.5,2.4980018054066E-16,0.));
#2480=DIRECTION('',(-1.,0.,0.));
#2490=DIRECTION('',(0.,1.,0.));
#2500=AXIS2_PLACEMENT_3D('',#2470,#2480,#2490);
#2510=CIRCLE('',#2500,12.);
#2520=CARTESIAN_POINT('',(-6.5,12.,0.));
#2530=VERTEX_POINT('',#2520);
#2540=CARTESIAN_POINT('',(-6.5,-12.,-1.46957615897682E-15));
#2550=VERTEX_POINT('',#2540);
#2560=EDGE_CURVE('',#2530,#2550,#2510,.T.);
#2570=ORIENTED_EDGE('',*,*,#2560,.F.);
#2580=EDGE_CURVE('',#2550,#2530,#2510,.T.);
#2590=ORIENTED_EDGE('',*,*,#2580,.F.);
#2600=EDGE_LOOP('',(#2590,#2570));
#2610=FACE_OUTER_BOUND('',#2600,.T.);
#2620=ADVANCED_FACE('',(#2460,#2610),#2310,.F.);
#2630=COLOUR_RGB('',0.831372618675232,0.850980460643768,
0.858823597431183);
#2640=FILL_AREA_STYLE_COLOUR('',#2630);
#2650=FILL_AREA_STYLE('',(#2640));
#2660=SURFACE_STYLE_FILL_AREA(#2650);
#2670=SURFACE_SIDE_STYLE('',(#2660));
#2680=SURFACE_STYLE_USAGE(.BOTH.,#2670);
#2690=PRESENTATION_STYLE_ASSIGNMENT((#2680));
#2700=CARTESIAN_POINT('',(-12.75,2.4980018054066E-16,0.));
#2710=DIRECTION('',(-1.,0.,0.));
#2720=DIRECTION('',(0.,1.,0.));
#2730=AXIS2_PLACEMENT_3D('',#2700,#2710,#2720);
#2740=CYLINDRICAL_SURFACE('',#2730,12.);
#2750=CARTESIAN_POINT('',(-12.75,-12.,-1.46957615897682E-15));
#2760=DIRECTION('',(-1.,0.,0.));
#2770=VECTOR('',#2760,1.);
#2780=LINE('',#2750,#2770);
#2790=EDGE_CURVE('',#2550,#290,#2780,.T.);
#2800=ORIENTED_EDGE('',*,*,#2790,.T.);
#2810=ORIENTED_EDGE('',*,*,#2560,.T.);
#2820=CARTESIAN_POINT('',(-12.75,12.,0.));
#2830=DIRECTION('',(-1.,0.,0.));
#2840=VECTOR('',#2830,1.);
#2850=LINE('',#2820,#2840);
#2860=EDGE_CURVE('',#2530,#270,#2850,.T.);
#2870=ORIENTED_EDGE('',*,*,#2860,.F.);
#2880=ORIENTED_EDGE('',*,*,#320,.T.);
#2890=EDGE_LOOP('',(#2880,#2870,#2810,#2800));
#2900=FACE_OUTER_BOUND('',#2890,.T.);
#2910=ADVANCED_FACE('',(#2900),#2740,.T.);
#2920=COLOUR_RGB('',0.831372618675232,0.850980460643768,
0.858823597431183);
#2930=FILL_AREA_STYLE_COLOUR('',#2920);
#2940=FILL_AREA_STYLE('',(#2930));
#2950=SURFACE_STYLE_FILL_AREA(#2940);
#2960=SURFACE_SIDE_STYLE('',(#2950));
#2970=SURFACE_STYLE_USAGE(.BOTH.,#2960);
#2980=PRESENTATION_STYLE_ASSIGNMENT((#2970));
#2990=CARTESIAN_POINT('',(-5.,-12.2,0.));
#3000=DIRECTION('',(-1.,0.,0.));
#3010=DIRECTION('',(0.,1.,0.));
#3020=AXIS2_PLACEMENT_3D('',#2990,#3000,#3010);
#3030=PLANE('',#3020);
#3040=EDGE_CURVE('',#1980,#2070,#2140,.T.);
#3050=ORIENTED_EDGE('',*,*,#3040,.T.);
#3060=ORIENTED_EDGE('',*,*,#2150,.T.);
#3070=EDGE_LOOP('',(#3060,#3050));
#3080=FACE_BOUND('',#3070,.T.);
#3090=CARTESIAN_POINT('',(-5.,0.,0.));
#3100=DIRECTION('',(-1.,0.,0.));
#3110=DIRECTION('',(0.,1.,0.));
#3120=AXIS2_PLACEMENT_3D('',#3090,#3100,#3110);
#3130=CIRCLE('',#3120,10.5);
#3140=CARTESIAN_POINT('',(-5.,10.5,0.));
#3150=VERTEX_POINT('',#3140);
#3160=CARTESIAN_POINT('',(-5.,-10.5,-1.28587913910472E-15));
#3170=VERTEX_POINT('',#3160);
#3180=EDGE_CURVE('',#3150,#3170,#3130,.T.);
#3190=ORIENTED_EDGE('',*,*,#3180,.F.);
#3200=EDGE_CURVE('',#3170,#3150,#3130,.T.);
#3210=ORIENTED_EDGE('',*,*,#3200,.F.);
#3220=EDGE_LOOP('',(#3210,#3190));
#3230=FACE_OUTER_BOUND('',#3220,.T.);
#3240=ADVANCED_FACE('',(#3080,#3230),#3030,.F.);
#3250=COLOUR_RGB('',0.,0.,0.);
#3260=FILL_AREA_STYLE_COLOUR('',#3250);
#3270=FILL_AREA_STYLE('',(#3260));
#3280=SURFACE_STYLE_FILL_AREA(#3270);
#3290=SURFACE_SIDE_STYLE('',(#3280));
#3300=SURFACE_STYLE_USAGE(.BOTH.,#3290);
#3310=PRESENTATION_STYLE_ASSIGNMENT((#3300));
#3320=CARTESIAN_POINT('',(-5.75,0.,0.));
#3330=DIRECTION('',(-1.,0.,0.));
#3340=DIRECTION('',(0.,1.,0.));
#3350=AXIS2_PLACEMENT_3D('',#3320,#3330,#3340);
#3360=CYLINDRICAL_SURFACE('',#3350,10.5);
#3370=CARTESIAN_POINT('',(-5.75,10.5,0.));
#3380=DIRECTION('',(-1.,0.,0.));
#3390=VECTOR('',#3380,1.);
#3400=LINE('',#3370,#3390);
#3410=EDGE_CURVE('',#3150,#2380,#3400,.T.);
#3420=ORIENTED_EDGE('',*,*,#3410,.T.);
#3430=ORIENTED_EDGE('',*,*,#3200,.T.);
#3440=CARTESIAN_POINT('',(-5.75,-10.5,-1.28587913910472E-15));
#3450=DIRECTION('',(-1.,0.,0.));
#3460=VECTOR('',#3450,1.);
#3470=LINE('',#3440,#3460);
#3480=EDGE_CURVE('',#3170,#2400,#3470,.T.);
#3490=ORIENTED_EDGE('',*,*,#3480,.F.);
#3500=ORIENTED_EDGE('',*,*,#2430,.F.);
#3510=EDGE_LOOP('',(#3500,#3490,#3430,#3420));
#3520=FACE_OUTER_BOUND('',#3510,.T.);
#3530=ADVANCED_FACE('',(#3520),#3360,.T.);
#3540=COLOUR_RGB('',0.,0.,0.);
#3550=FILL_AREA_STYLE_COLOUR('',#3540);
#3560=FILL_AREA_STYLE('',(#3550));
#3570=SURFACE_STYLE_FILL_AREA(#3560);
#3580=SURFACE_SIDE_STYLE('',(#3570));
#3590=SURFACE_STYLE_USAGE(.BOTH.,#3580);
#3600=PRESENTATION_STYLE_ASSIGNMENT((#3590));
#3610=CARTESIAN_POINT('',(-4.25,2.4980018054066E-16,0.));
#3620=DIRECTION('',(1.,0.,0.));
#3630=DIRECTION('',(0.,-1.,0.));
#3640=AXIS2_PLACEMENT_3D('',#3610,#3620,#3630);
#3650=CYLINDRICAL_SURFACE('',#3640,8.5);
#3660=ORIENTED_EDGE('',*,*,#1750,.T.);
#3670=ORIENTED_EDGE('',*,*,#1360,.T.);
#3680=ORIENTED_EDGE('',*,*,#970,.F.);
#3690=ORIENTED_EDGE('',*,*,#1270,.F.);
#3700=EDGE_LOOP('',(#3690,#3680,#3670,#3660));
#3710=FACE_OUTER_BOUND('',#3700,.T.);
#3720=ADVANCED_FACE('',(#3710),#3650,.F.);
#3730=COLOUR_RGB('',0.831372618675232,0.850980460643768,
0.858823597431183);
#3740=FILL_AREA_STYLE_COLOUR('',#3730);
#3750=FILL_AREA_STYLE('',(#3740));
#3760=SURFACE_STYLE_FILL_AREA(#3750);
#3770=SURFACE_SIDE_STYLE('',(#3760));
#3780=SURFACE_STYLE_USAGE(.BOTH.,#3770);
#3790=PRESENTATION_STYLE_ASSIGNMENT((#3780));
#3800=CARTESIAN_POINT('',(-12.75,2.4980018054066E-16,0.));
#3810=DIRECTION('',(-1.,0.,0.));
#3820=DIRECTION('',(0.,1.,0.));
#3830=AXIS2_PLACEMENT_3D('',#3800,#3810,#3820);
#3840=CYLINDRICAL_SURFACE('',#3830,12.);
#3850=ORIENTED_EDGE('',*,*,#2790,.F.);
#3860=ORIENTED_EDGE('',*,*,#300,.T.);
#3870=ORIENTED_EDGE('',*,*,#2860,.T.);
#3880=ORIENTED_EDGE('',*,*,#2580,.T.);
#3890=EDGE_LOOP('',(#3880,#3870,#3860,#3850));
#3900=FACE_OUTER_BOUND('',#3890,.T.);
#3910=ADVANCED_FACE('',(#3900),#3840,.T.);
#3920=COLOUR_RGB('',0.831372618675232,0.850980460643768,
0.858823597431183);
#3930=FILL_AREA_STYLE_COLOUR('',#3920);
#3940=FILL_AREA_STYLE('',(#3930));
#3950=SURFACE_STYLE_FILL_AREA(#3940);
#3960=SURFACE_SIDE_STYLE('',(#3950));
#3970=SURFACE_STYLE_USAGE(.BOTH.,#3960);
#3980=PRESENTATION_STYLE_ASSIGNMENT((#3970));
#3990=CARTESIAN_POINT('',(-13.75,2.4980018054066E-16,0.));
#4000=DIRECTION('',(1.,0.,0.));
#4010=DIRECTION('',(0.,-1.,0.));
#4020=AXIS2_PLACEMENT_3D('',#3990,#4000,#4010);
#4030=CYLINDRICAL_SURFACE('',#4020,11.25);
#4040=ORIENTED_EDGE('',*,*,#1030,.T.);
#4050=ORIENTED_EDGE('',*,*,#640,.T.);
#4060=ORIENTED_EDGE('',*,*,#150,.F.);
#4070=ORIENTED_EDGE('',*,*,#550,.F.);
#4080=EDGE_LOOP('',(#4070,#4060,#4050,#4040));
#4090=FACE_OUTER_BOUND('',#4080,.T.);
#4100=ADVANCED_FACE('',(#4090),#4030,.F.);
#4110=COLOUR_RGB('',0.831372618675232,0.850980460643768,
0.858823597431183);
#4120=FILL_AREA_STYLE_COLOUR('',#4110);
#4130=FILL_AREA_STYLE('',(#4120));
#4140=SURFACE_STYLE_FILL_AREA(#4130);
#4150=SURFACE_SIDE_STYLE('',(#4140));
#4160=SURFACE_STYLE_USAGE(.BOTH.,#4150);
#4170=PRESENTATION_STYLE_ASSIGNMENT((#4160));
#4180=CARTESIAN_POINT('',(-5.75,0.,0.));
#4190=DIRECTION('',(-1.,0.,0.));
#4200=DIRECTION('',(0.,1.,0.));
#4210=AXIS2_PLACEMENT_3D('',#4180,#4190,#4200);
#4220=CYLINDRICAL_SURFACE('',#4210,10.5);
#4230=ORIENTED_EDGE('',*,*,#2410,.F.);
#4240=ORIENTED_EDGE('',*,*,#3480,.T.);
#4250=ORIENTED_EDGE('',*,*,#3180,.T.);
#4260=ORIENTED_EDGE('',*,*,#3410,.F.);
#4270=EDGE_LOOP('',(#4260,#4250,#4240,#4230));
#4280=FACE_OUTER_BOUND('',#4270,.T.);
#4290=ADVANCED_FACE('',(#4280),#4220,.T.);
#4300=COLOUR_RGB('',0.,0.,0.);
#4310=FILL_AREA_STYLE_COLOUR('',#4300);
#4320=FILL_AREA_STYLE('',(#4310));
#4330=SURFACE_STYLE_FILL_AREA(#4320);
#4340=SURFACE_SIDE_STYLE('',(#4330));
#4350=SURFACE_STYLE_USAGE(.BOTH.,#4340);
#4360=PRESENTATION_STYLE_ASSIGNMENT((#4350));
#4370=CARTESIAN_POINT('',(-3.25,2.4980018054066E-16,0.));
#4380=DIRECTION('',(-1.,0.,0.));
#4390=DIRECTION('',(0.,1.,0.));
#4400=AXIS2_PLACEMENT_3D('',#4370,#4380,#4390);
#4410=CYLINDRICAL_SURFACE('',#4400,10.2);
#4420=ORIENTED_EDGE('',*,*,#1990,.F.);
#4430=ORIENTED_EDGE('',*,*,#3040,.F.);
#4440=ORIENTED_EDGE('',*,*,#2080,.T.);
#4450=ORIENTED_EDGE('',*,*,#1710,.F.);
#4460=EDGE_LOOP('',(#4450,#4440,#4430,#4420));
#4470=FACE_OUTER_BOUND('',#4460,.T.);
#4480=ADVANCED_FACE('',(#4470),#4410,.T.);
#4490=COLOUR_RGB('',0.831372618675232,0.850980460643768,
0.858823597431183);
#4500=FILL_AREA_STYLE_COLOUR('',#4490);
#4510=FILL_AREA_STYLE('',(#4500));
#4520=SURFACE_STYLE_FILL_AREA(#4510);
#4530=SURFACE_SIDE_STYLE('',(#4520));
#4540=SURFACE_STYLE_USAGE(.BOTH.,#4530);
#4550=PRESENTATION_STYLE_ASSIGNMENT((#4540));
#4560=CLOSED_SHELL('',(#360,#750,#1080,#1470,#1800,#2190,#2620,#2910,
#3240,#3530,#3720,#3910,#4100,#4290,#4480));
#4570=MANIFOLD_SOLID_BREP('',#4560);
#4580=CARTESIAN_POINT('',(0.,0.,0.));
#4590=DIRECTION('',(0.,0.,1.));
#4600=DIRECTION('',(1.,0.,0.));
#4610=AXIS2_PLACEMENT_3D('',#4580,#4590,#4600);
#4620=APPLICATION_CONTEXT(' ');
#4630=APPLICATION_PROTOCOL_DEFINITION(' ','automotive_design',1998,#4620
);
#4640=PRODUCT_CONTEXT('',#4620,'mechanical');
#4650=PRODUCT_DEFINITION_CONTEXT('part definition',#4620,'design');
#4660=PRODUCT('1415219_A_INE_PG13_16_N_NS_S-select',
'1415219_A_INE_PG13_16_N_NS_S-select','',(#4640));
#4670=PRODUCT_RELATED_PRODUCT_CATEGORY('part',' ',(#4660));
#4680=PRODUCT_DEFINITION_FORMATION_WITH_SPECIFIED_SOURCE('','',#4660,
.BOUGHT.);
#4690=PRODUCT_DEFINITION('',' ',#4680,#4650);
#4700=PRODUCT_DEFINITION_SHAPE('','',#4690);
#4710=DIMENSIONAL_EXPONENTS(1.,0.,0.,0.,0.,0.,0.);
#4720=DIMENSIONAL_EXPONENTS(0.,0.,0.,0.,0.,0.,0.);
#4730=DIMENSIONAL_EXPONENTS(0.,0.,0.,0.,0.,0.,0.);
#4740=(LENGTH_UNIT() NAMED_UNIT(*) SI_UNIT(.MILLI.,.METRE.));
#4750=(NAMED_UNIT(*) PLANE_ANGLE_UNIT() SI_UNIT($,.RADIAN.));
#4760=(NAMED_UNIT(*) SI_UNIT($,.STERADIAN.) SOLID_ANGLE_UNIT());
#4770=(GEOMETRIC_REPRESENTATION_CONTEXT(3) 
GLOBAL_UNCERTAINTY_ASSIGNED_CONTEXT((#4780)) 
GLOBAL_UNIT_ASSIGNED_CONTEXT((#4740,#4750,#4760)) REPRESENTATION_CONTEXT
('',''));
#4780=UNCERTAINTY_MEASURE_WITH_UNIT(LENGTH_MEASURE(1.E-6),#4740,
'distance_accuracy_value','maximum gap value');
#4790=ADVANCED_BREP_SHAPE_REPRESENTATION('',(#4610,#4570),#4770);
#4800=SHAPE_DEFINITION_REPRESENTATION(#4700,#4790);
#4810=COLOUR_RGB('',0.831372618675232,0.850980460643768,
0.858823597431183);
#4820=FILL_AREA_STYLE_COLOUR('',#4810);
#4830=FILL_AREA_STYLE('',(#4820));
#4840=SURFACE_STYLE_FILL_AREA(#4830);
#4850=SURFACE_SIDE_STYLE('',(#4840));
#4860=SURFACE_STYLE_USAGE(.BOTH.,#4850);
#4870=PRESENTATION_STYLE_ASSIGNMENT((#4860));
#4880=STYLED_ITEM('',(#4870),#4570);
#4890=OVER_RIDING_STYLED_ITEM('',(#430),#360,#4880);
#4900=OVER_RIDING_STYLED_ITEM('',(#820),#750,#4880);
#4910=OVER_RIDING_STYLED_ITEM('',(#1150),#1080,#4880);
#4920=OVER_RIDING_STYLED_ITEM('',(#1540),#1470,#4880);
#4930=OVER_RIDING_STYLED_ITEM('',(#1870),#1800,#4880);
#4940=OVER_RIDING_STYLED_ITEM('',(#2260),#2190,#4880);
#4950=OVER_RIDING_STYLED_ITEM('',(#2690),#2620,#4880);
#4960=OVER_RIDING_STYLED_ITEM('',(#2980),#2910,#4880);
#4970=OVER_RIDING_STYLED_ITEM('',(#3310),#3240,#4880);
#4980=OVER_RIDING_STYLED_ITEM('',(#3600),#3530,#4880);
#4990=OVER_RIDING_STYLED_ITEM('',(#3790),#3720,#4880);
#5000=OVER_RIDING_STYLED_ITEM('',(#3980),#3910,#4880);
#5010=OVER_RIDING_STYLED_ITEM('',(#4170),#4100,#4880);
#5020=OVER_RIDING_STYLED_ITEM('',(#4360),#4290,#4880);
#5030=OVER_RIDING_STYLED_ITEM('',(#4550),#4480,#4880);
#5040=DRAUGHTING_MODEL('',(#4880,#4890,#4900,#4910,#4920,#4930,#4940,
#4950,#4960,#4970,#4980,#4990,#5000,#5010,#5020,#5030),#4770);
#5050=CARTESIAN_POINT('',(0.,0.,0.));
#5060=DIRECTION('',(-1.,0.,0.));
#5070=DIRECTION('',(0.,0.,1.));
#5080=AXIS2_PLACEMENT_3D('',#5050,#5060,#5070);
#5090=ITEM_DEFINED_TRANSFORMATION('1415219_A_INE_PG13_16_N_NS_S-select',
'',#4610,#5080);
#5100=APPLICATION_CONTEXT(' ');
#5110=APPLICATION_PROTOCOL_DEFINITION(' ','automotive_design',1998,#5100
);
#5120=PRODUCT_CONTEXT('',#5100,'mechanical');
#5130=PRODUCT_DEFINITION_CONTEXT('part definition',#5100,'design');
#5140=PRODUCT('1415219_A_INE_PG13_16_N_NS_S-select',
'1415219_A_INE_PG13_16_N_NS_S-select','',(#5120));
#5150=PRODUCT_RELATED_PRODUCT_CATEGORY('part',' ',(#5140));
#5160=PRODUCT_DEFINITION_FORMATION_WITH_SPECIFIED_SOURCE('','',#5140,
.BOUGHT.);
#5170=PRODUCT_DEFINITION('',' ',#5160,#5130);
#5180=PRODUCT_DEFINITION_SHAPE('','',#5170);
#5190=DIMENSIONAL_EXPONENTS(1.,0.,0.,0.,0.,0.,0.);
#5200=DIMENSIONAL_EXPONENTS(0.,0.,0.,0.,0.,0.,0.);
#5210=DIMENSIONAL_EXPONENTS(0.,0.,0.,0.,0.,0.,0.);
#5220=(LENGTH_UNIT() NAMED_UNIT(*) SI_UNIT(.MILLI.,.METRE.));
#5230=(NAMED_UNIT(*) PLANE_ANGLE_UNIT() SI_UNIT($,.RADIAN.));
#5240=(NAMED_UNIT(*) SI_UNIT($,.STERADIAN.) SOLID_ANGLE_UNIT());
#5250=(GEOMETRIC_REPRESENTATION_CONTEXT(3) 
GLOBAL_UNCERTAINTY_ASSIGNED_CONTEXT((#5260)) 
GLOBAL_UNIT_ASSIGNED_CONTEXT((#5220,#5230,#5240)) REPRESENTATION_CONTEXT
('',''));
#5260=UNCERTAINTY_MEASURE_WITH_UNIT(LENGTH_MEASURE(1.E-6),#5220,
'distance_accuracy_value','maximum gap value');
#5270=SHAPE_REPRESENTATION('',(#4610,#5080),#5250);
#5280=SHAPE_DEFINITION_REPRESENTATION(#5180,#5270);
#5290=(REPRESENTATION_RELATIONSHIP('','',#4790,#5270) 
REPRESENTATION_RELATIONSHIP_WITH_TRANSFORMATION(#5090) 
SHAPE_REPRESENTATION_RELATIONSHIP());
#5300=NEXT_ASSEMBLY_USAGE_OCCURRENCE('1','',
'1415219_A_INE_PG13_16_N_NS_S-select',#5170,#4690,'');
#5310=PRODUCT_DEFINITION_SHAPE('','',#5300);
#5320=CONTEXT_DEPENDENT_SHAPE_REPRESENTATION(#5290,#5310);
ENDSEC;
END-ISO-10303-21;
