ISO-10303-21;
HEADER;
FILE_DESCRIPTION(('SolidDesigner STEP Export'),'2;1');
FILE_NAME('0827451_CARRIER_EMP_27X15-select.stp','2017-05-30T 7:45:02',(
''),(''),
'Creo Elements/Direct Modeling STEP processor for AP214 (Solid Model)',
'Creo Elements/Direct Modeling 18.1G  27-Feb-2015 (C) Parametric Technol
ogy GmbH','');
FILE_SCHEMA(('AUTOMOTIVE_DESIGN { 1 0 10303 214 1 1 1 1 }'));
ENDSEC;
DATA;
#10=CARTESIAN_POINT('',(0.,0.,0.));
#20=DIRECTION('',(0.,0.,1.));
#30=DIRECTION('',(1.,0.,0.));
#40=AXIS2_PLACEMENT_3D('',#10,#20,#30);
#50=PLANE('',#40);
#60=CARTESIAN_POINT('',(33.1906588054792,31.,0.));
#70=DIRECTION('',(1.,0.,0.));
#80=VECTOR('',#70,1.);
#90=LINE('',#60,#80);
#100=CARTESIAN_POINT('',(33.1906588054792,31.,0.));
#110=VERTEX_POINT('',#100);
#120=CARTESIAN_POINT('',(63.1906588054792,31.,0.));
#130=VERTEX_POINT('',#120);
#140=EDGE_CURVE('',#110,#130,#90,.T.);
#150=ORIENTED_EDGE('',*,*,#140,.F.);
#160=CARTESIAN_POINT('',(63.1906588054792,31.,0.));
#170=DIRECTION('',(0.,-1.,0.));
#180=VECTOR('',#170,1.);
#190=LINE('',#160,#180);
#200=CARTESIAN_POINT('',(63.1906588054792,14.,0.));
#210=VERTEX_POINT('',#200);
#220=EDGE_CURVE('',#130,#210,#190,.T.);
#230=ORIENTED_EDGE('',*,*,#220,.F.);
#240=CARTESIAN_POINT('',(63.1906588054792,14.,0.));
#250=DIRECTION('',(-1.,0.,0.));
#260=VECTOR('',#250,1.);
#270=LINE('',#240,#260);
#280=CARTESIAN_POINT('',(33.1906588054792,14.,0.));
#290=VERTEX_POINT('',#280);
#300=EDGE_CURVE('',#210,#290,#270,.T.);
#310=ORIENTED_EDGE('',*,*,#300,.F.);
#320=CARTESIAN_POINT('',(33.1906588054792,14.,0.));
#330=DIRECTION('',(0.,1.,0.));
#340=VECTOR('',#330,1.);
#350=LINE('',#320,#340);
#360=EDGE_CURVE('',#290,#110,#350,.T.);
#370=ORIENTED_EDGE('',*,*,#360,.F.);
#380=EDGE_LOOP('',(#370,#310,#230,#150));
#390=FACE_OUTER_BOUND('',#380,.T.);
#400=CARTESIAN_POINT('',(0.,14.9,-0.));
#410=DIRECTION('',(-1.,0.,0.));
#420=VECTOR('',#410,1.);
#430=LINE('',#400,#420);
#440=CARTESIAN_POINT('',(61.7906588054792,14.9,-0.));
#450=VERTEX_POINT('',#440);
#460=CARTESIAN_POINT('',(34.5906588054792,14.9,0.));
#470=VERTEX_POINT('',#460);
#480=EDGE_CURVE('',#450,#470,#430,.T.);
#490=ORIENTED_EDGE('',*,*,#480,.T.);
#500=CARTESIAN_POINT('',(61.7906588054792,0.,-0.));
#510=DIRECTION('',(-0.,-1.,0.));
#520=VECTOR('',#510,1.);
#530=LINE('',#500,#520);
#540=CARTESIAN_POINT('',(61.7906588054792,30.1,-0.));
#550=VERTEX_POINT('',#540);
#560=EDGE_CURVE('',#550,#450,#530,.T.);
#570=ORIENTED_EDGE('',*,*,#560,.T.);
#580=CARTESIAN_POINT('',(0.,30.1,0.));
#590=DIRECTION('',(1.,0.,0.));
#600=VECTOR('',#590,1.);
#610=LINE('',#580,#600);
#620=CARTESIAN_POINT('',(34.5906588054792,30.1,0.));
#630=VERTEX_POINT('',#620);
#640=EDGE_CURVE('',#630,#550,#610,.T.);
#650=ORIENTED_EDGE('',*,*,#640,.T.);
#660=CARTESIAN_POINT('',(34.5906588054792,0.,0.));
#670=DIRECTION('',(-0.,1.,0.));
#680=VECTOR('',#670,1.);
#690=LINE('',#660,#680);
#700=EDGE_CURVE('',#470,#630,#690,.T.);
#710=ORIENTED_EDGE('',*,*,#700,.T.);
#720=EDGE_LOOP('',(#710,#650,#570,#490));
#730=FACE_BOUND('',#720,.T.);
#740=ADVANCED_FACE('',(#390,#730),#50,.T.);
#750=CARTESIAN_POINT('',(0.,0.,-6.));
#760=DIRECTION('',(0.,0.,1.));
#770=DIRECTION('',(1.,0.,0.));
#780=AXIS2_PLACEMENT_3D('',#750,#760,#770);
#790=PLANE('',#780);
#800=CARTESIAN_POINT('',(33.1906588054792,14.,-6.));
#810=DIRECTION('',(0.,1.,0.));
#820=VECTOR('',#810,1.);
#830=LINE('',#800,#820);
#840=CARTESIAN_POINT('',(33.1906588054792,14.,-6.));
#850=VERTEX_POINT('',#840);
#860=CARTESIAN_POINT('',(33.1906588054792,31.,-6.));
#870=VERTEX_POINT('',#860);
#880=EDGE_CURVE('',#850,#870,#830,.T.);
#890=ORIENTED_EDGE('',*,*,#880,.T.);
#900=CARTESIAN_POINT('',(63.1906588054792,14.,-6.));
#910=DIRECTION('',(-1.,0.,0.));
#920=VECTOR('',#910,1.);
#930=LINE('',#900,#920);
#940=CARTESIAN_POINT('',(63.1906588054792,14.,-6.));
#950=VERTEX_POINT('',#940);
#960=EDGE_CURVE('',#950,#850,#930,.T.);
#970=ORIENTED_EDGE('',*,*,#960,.T.);
#980=CARTESIAN_POINT('',(63.1906588054792,31.,-6.));
#990=DIRECTION('',(0.,-1.,0.));
#1000=VECTOR('',#990,1.);
#1010=LINE('',#980,#1000);
#1020=CARTESIAN_POINT('',(63.1906588054792,31.,-6.));
#1030=VERTEX_POINT('',#1020);
#1040=EDGE_CURVE('',#1030,#950,#1010,.T.);
#1050=ORIENTED_EDGE('',*,*,#1040,.T.);
#1060=CARTESIAN_POINT('',(33.1906588054792,31.,-6.));
#1070=DIRECTION('',(1.,0.,0.));
#1080=VECTOR('',#1070,1.);
#1090=LINE('',#1060,#1080);
#1100=EDGE_CURVE('',#870,#1030,#1090,.T.);
#1110=ORIENTED_EDGE('',*,*,#1100,.T.);
#1120=EDGE_LOOP('',(#1110,#1050,#970,#890));
#1130=FACE_OUTER_BOUND('',#1120,.T.);
#1140=CARTESIAN_POINT('',(46.3906588054792,0.,-6.));
#1150=DIRECTION('',(-0.,1.,0.));
#1160=VECTOR('',#1150,1.);
#1170=LINE('',#1140,#1160);
#1180=CARTESIAN_POINT('',(46.3906588054792,22.,-6.));
#1190=VERTEX_POINT('',#1180);
#1200=CARTESIAN_POINT('',(46.3906588054792,23.,-6.));
#1210=VERTEX_POINT('',#1200);
#1220=EDGE_CURVE('',#1190,#1210,#1170,.T.);
#1230=ORIENTED_EDGE('',*,*,#1220,.F.);
#1240=CARTESIAN_POINT('',(48.1906588054792,23.,-6.));
#1250=DIRECTION('',(0.,0.,1.));
#1260=DIRECTION('',(1.,0.,0.));
#1270=AXIS2_PLACEMENT_3D('',#1240,#1250,#1260);
#1280=CIRCLE('',#1270,1.8);
#1290=CARTESIAN_POINT('',(49.9906588054792,23.,-6.));
#1300=VERTEX_POINT('',#1290);
#1310=EDGE_CURVE('',#1300,#1210,#1280,.T.);
#1320=ORIENTED_EDGE('',*,*,#1310,.T.);
#1330=CARTESIAN_POINT('',(49.9906588054792,0.,-6.));
#1340=DIRECTION('',(-0.,-1.,0.));
#1350=VECTOR('',#1340,1.);
#1360=LINE('',#1330,#1350);
#1370=CARTESIAN_POINT('',(49.9906588054792,22.,-6.));
#1380=VERTEX_POINT('',#1370);
#1390=EDGE_CURVE('',#1300,#1380,#1360,.T.);
#1400=ORIENTED_EDGE('',*,*,#1390,.F.);
#1410=CARTESIAN_POINT('',(48.1906588054792,22.,-6.));
#1420=DIRECTION('',(0.,0.,1.));
#1430=DIRECTION('',(1.,0.,0.));
#1440=AXIS2_PLACEMENT_3D('',#1410,#1420,#1430);
#1450=CIRCLE('',#1440,1.8);
#1460=EDGE_CURVE('',#1190,#1380,#1450,.T.);
#1470=ORIENTED_EDGE('',*,*,#1460,.T.);
#1480=EDGE_LOOP('',(#1470,#1400,#1320,#1230));
#1490=FACE_BOUND('',#1480,.T.);
#1500=ADVANCED_FACE('',(#1130,#1490),#790,.F.);
#1510=CARTESIAN_POINT('',(33.1906588054792,14.,0.));
#1520=DIRECTION('',(1.,0.,0.));
#1530=DIRECTION('',(0.,-1.,0.));
#1540=AXIS2_PLACEMENT_3D('',#1510,#1520,#1530);
#1550=PLANE('',#1540);
#1560=ORIENTED_EDGE('',*,*,#360,.T.);
#1570=CARTESIAN_POINT('',(33.1906588054792,14.,0.));
#1580=DIRECTION('',(-0.,-0.,-1.));
#1590=VECTOR('',#1580,1.);
#1600=LINE('',#1570,#1590);
#1610=EDGE_CURVE('',#290,#850,#1600,.T.);
#1620=ORIENTED_EDGE('',*,*,#1610,.F.);
#1630=ORIENTED_EDGE('',*,*,#880,.F.);
#1640=CARTESIAN_POINT('',(33.1906588054792,31.,0.));
#1650=DIRECTION('',(-0.,-0.,-1.));
#1660=VECTOR('',#1650,1.);
#1670=LINE('',#1640,#1660);
#1680=EDGE_CURVE('',#110,#870,#1670,.T.);
#1690=ORIENTED_EDGE('',*,*,#1680,.T.);
#1700=EDGE_LOOP('',(#1690,#1630,#1620,#1560));
#1710=FACE_OUTER_BOUND('',#1700,.T.);
#1720=ADVANCED_FACE('',(#1710),#1550,.F.);
#1730=CARTESIAN_POINT('',(63.1906588054792,14.,0.));
#1740=DIRECTION('',(0.,1.,-0.));
#1750=DIRECTION('',(1.,-0.,0.));
#1760=AXIS2_PLACEMENT_3D('',#1730,#1740,#1750);
#1770=PLANE('',#1760);
#1780=ORIENTED_EDGE('',*,*,#300,.T.);
#1790=CARTESIAN_POINT('',(63.1906588054792,14.,0.));
#1800=DIRECTION('',(-0.,-0.,-1.));
#1810=VECTOR('',#1800,1.);
#1820=LINE('',#1790,#1810);
#1830=EDGE_CURVE('',#210,#950,#1820,.T.);
#1840=ORIENTED_EDGE('',*,*,#1830,.F.);
#1850=ORIENTED_EDGE('',*,*,#960,.F.);
#1860=ORIENTED_EDGE('',*,*,#1610,.T.);
#1870=EDGE_LOOP('',(#1860,#1850,#1840,#1780));
#1880=FACE_OUTER_BOUND('',#1870,.T.);
#1890=ADVANCED_FACE('',(#1880),#1770,.F.);
#1900=CARTESIAN_POINT('',(63.1906588054792,31.,0.));
#1910=DIRECTION('',(-1.,0.,0.));
#1920=DIRECTION('',(0.,1.,0.));
#1930=AXIS2_PLACEMENT_3D('',#1900,#1910,#1920);
#1940=PLANE('',#1930);
#1950=ORIENTED_EDGE('',*,*,#220,.T.);
#1960=CARTESIAN_POINT('',(63.1906588054792,31.,0.));
#1970=DIRECTION('',(-0.,-0.,-1.));
#1980=VECTOR('',#1970,1.);
#1990=LINE('',#1960,#1980);
#2000=EDGE_CURVE('',#130,#1030,#1990,.T.);
#2010=ORIENTED_EDGE('',*,*,#2000,.F.);
#2020=ORIENTED_EDGE('',*,*,#1040,.F.);
#2030=ORIENTED_EDGE('',*,*,#1830,.T.);
#2040=EDGE_LOOP('',(#2030,#2020,#2010,#1950));
#2050=FACE_OUTER_BOUND('',#2040,.T.);
#2060=ADVANCED_FACE('',(#2050),#1940,.F.);
#2070=CARTESIAN_POINT('',(33.1906588054792,31.,0.));
#2080=DIRECTION('',(0.,-1.,0.));
#2090=DIRECTION('',(-1.,-0.,0.));
#2100=AXIS2_PLACEMENT_3D('',#2070,#2080,#2090);
#2110=PLANE('',#2100);
#2120=ORIENTED_EDGE('',*,*,#140,.T.);
#2130=ORIENTED_EDGE('',*,*,#1680,.F.);
#2140=ORIENTED_EDGE('',*,*,#1100,.F.);
#2150=ORIENTED_EDGE('',*,*,#2000,.T.);
#2160=EDGE_LOOP('',(#2150,#2140,#2130,#2120));
#2170=FACE_OUTER_BOUND('',#2160,.T.);
#2180=ADVANCED_FACE('',(#2170),#2110,.F.);
#2190=CARTESIAN_POINT('',(0.,0.,-4.5));
#2200=DIRECTION('',(0.,0.,1.));
#2210=DIRECTION('',(1.,0.,0.));
#2220=AXIS2_PLACEMENT_3D('',#2190,#2200,#2210);
#2230=PLANE('',#2220);
#2240=CARTESIAN_POINT('',(34.5906588054792,30.1,-4.5));
#2250=DIRECTION('',(1.,0.,0.));
#2260=VECTOR('',#2250,1.);
#2270=LINE('',#2240,#2260);
#2280=CARTESIAN_POINT('',(34.5906588054792,30.1,-4.5));
#2290=VERTEX_POINT('',#2280);
#2300=CARTESIAN_POINT('',(61.7906588054792,30.1,-4.5));
#2310=VERTEX_POINT('',#2300);
#2320=EDGE_CURVE('',#2290,#2310,#2270,.T.);
#2330=ORIENTED_EDGE('',*,*,#2320,.F.);
#2340=CARTESIAN_POINT('',(61.7906588054792,30.1,-4.5));
#2350=DIRECTION('',(0.,-1.,0.));
#2360=VECTOR('',#2350,1.);
#2370=LINE('',#2340,#2360);
#2380=CARTESIAN_POINT('',(61.7906588054792,14.9,-4.5));
#2390=VERTEX_POINT('',#2380);
#2400=EDGE_CURVE('',#2310,#2390,#2370,.T.);
#2410=ORIENTED_EDGE('',*,*,#2400,.F.);
#2420=CARTESIAN_POINT('',(61.7906588054792,14.9,-4.5));
#2430=DIRECTION('',(-1.,0.,0.));
#2440=VECTOR('',#2430,1.);
#2450=LINE('',#2420,#2440);
#2460=CARTESIAN_POINT('',(34.5906588054792,14.9,-4.5));
#2470=VERTEX_POINT('',#2460);
#2480=EDGE_CURVE('',#2390,#2470,#2450,.T.);
#2490=ORIENTED_EDGE('',*,*,#2480,.F.);
#2500=CARTESIAN_POINT('',(34.5906588054792,14.9,-4.5));
#2510=DIRECTION('',(0.,1.,0.));
#2520=VECTOR('',#2510,1.);
#2530=LINE('',#2500,#2520);
#2540=EDGE_CURVE('',#2470,#2290,#2530,.T.);
#2550=ORIENTED_EDGE('',*,*,#2540,.F.);
#2560=EDGE_LOOP('',(#2550,#2490,#2410,#2330));
#2570=FACE_OUTER_BOUND('',#2560,.T.);
#2580=CARTESIAN_POINT('',(49.9906588054792,0.,-4.5));
#2590=DIRECTION('',(-0.,-1.,0.));
#2600=VECTOR('',#2590,1.);
#2610=LINE('',#2580,#2600);
#2620=CARTESIAN_POINT('',(49.9906588054792,23.,-4.5));
#2630=VERTEX_POINT('',#2620);
#2640=CARTESIAN_POINT('',(49.9906588054792,22.,-4.5));
#2650=VERTEX_POINT('',#2640);
#2660=EDGE_CURVE('',#2630,#2650,#2610,.T.);
#2670=ORIENTED_EDGE('',*,*,#2660,.T.);
#2680=CARTESIAN_POINT('',(48.1906588054792,23.,-4.5));
#2690=DIRECTION('',(0.,0.,1.));
#2700=DIRECTION('',(1.,0.,0.));
#2710=AXIS2_PLACEMENT_3D('',#2680,#2690,#2700);
#2720=CIRCLE('',#2710,1.8);
#2730=CARTESIAN_POINT('',(46.3906588054792,23.,-4.5));
#2740=VERTEX_POINT('',#2730);
#2750=EDGE_CURVE('',#2630,#2740,#2720,.T.);
#2760=ORIENTED_EDGE('',*,*,#2750,.F.);
#2770=CARTESIAN_POINT('',(46.3906588054792,0.,-4.5));
#2780=DIRECTION('',(-0.,1.,0.));
#2790=VECTOR('',#2780,1.);
#2800=LINE('',#2770,#2790);
#2810=CARTESIAN_POINT('',(46.3906588054792,22.,-4.5));
#2820=VERTEX_POINT('',#2810);
#2830=EDGE_CURVE('',#2820,#2740,#2800,.T.);
#2840=ORIENTED_EDGE('',*,*,#2830,.T.);
#2850=CARTESIAN_POINT('',(48.1906588054792,22.,-4.5));
#2860=DIRECTION('',(0.,0.,1.));
#2870=DIRECTION('',(1.,0.,0.));
#2880=AXIS2_PLACEMENT_3D('',#2850,#2860,#2870);
#2890=CIRCLE('',#2880,1.8);
#2900=EDGE_CURVE('',#2820,#2650,#2890,.T.);
#2910=ORIENTED_EDGE('',*,*,#2900,.F.);
#2920=EDGE_LOOP('',(#2910,#2840,#2760,#2670));
#2930=FACE_BOUND('',#2920,.T.);
#2940=ADVANCED_FACE('',(#2570,#2930),#2230,.T.);
#2950=CARTESIAN_POINT('',(34.5906588054792,30.1,0.));
#2960=DIRECTION('',(0.,-1.,0.));
#2970=DIRECTION('',(-1.,-0.,0.));
#2980=AXIS2_PLACEMENT_3D('',#2950,#2960,#2970);
#2990=PLANE('',#2980);
#3000=CARTESIAN_POINT('',(61.7906588054792,30.1,0.));
#3010=DIRECTION('',(-0.,-0.,-1.));
#3020=VECTOR('',#3010,1.);
#3030=LINE('',#3000,#3020);
#3040=EDGE_CURVE('',#550,#2310,#3030,.T.);
#3050=ORIENTED_EDGE('',*,*,#3040,.F.);
#3060=ORIENTED_EDGE('',*,*,#2320,.T.);
#3070=CARTESIAN_POINT('',(34.5906588054792,30.1,0.));
#3080=DIRECTION('',(-0.,-0.,-1.));
#3090=VECTOR('',#3080,1.);
#3100=LINE('',#3070,#3090);
#3110=EDGE_CURVE('',#630,#2290,#3100,.T.);
#3120=ORIENTED_EDGE('',*,*,#3110,.T.);
#3130=ORIENTED_EDGE('',*,*,#640,.F.);
#3140=EDGE_LOOP('',(#3130,#3120,#3060,#3050));
#3150=FACE_OUTER_BOUND('',#3140,.T.);
#3160=ADVANCED_FACE('',(#3150),#2990,.T.);
#3170=CARTESIAN_POINT('',(61.7906588054792,30.1,0.));
#3180=DIRECTION('',(-1.,0.,0.));
#3190=DIRECTION('',(0.,1.,0.));
#3200=AXIS2_PLACEMENT_3D('',#3170,#3180,#3190);
#3210=PLANE('',#3200);
#3220=CARTESIAN_POINT('',(61.7906588054792,14.9,0.));
#3230=DIRECTION('',(-0.,-0.,-1.));
#3240=VECTOR('',#3230,1.);
#3250=LINE('',#3220,#3240);
#3260=EDGE_CURVE('',#450,#2390,#3250,.T.);
#3270=ORIENTED_EDGE('',*,*,#3260,.F.);
#3280=ORIENTED_EDGE('',*,*,#2400,.T.);
#3290=ORIENTED_EDGE('',*,*,#3040,.T.);
#3300=ORIENTED_EDGE('',*,*,#560,.F.);
#3310=EDGE_LOOP('',(#3300,#3290,#3280,#3270));
#3320=FACE_OUTER_BOUND('',#3310,.T.);
#3330=ADVANCED_FACE('',(#3320),#3210,.T.);
#3340=CARTESIAN_POINT('',(61.7906588054792,14.9,0.));
#3350=DIRECTION('',(0.,1.,-0.));
#3360=DIRECTION('',(1.,-0.,0.));
#3370=AXIS2_PLACEMENT_3D('',#3340,#3350,#3360);
#3380=PLANE('',#3370);
#3390=CARTESIAN_POINT('',(34.5906588054792,14.9,0.));
#3400=DIRECTION('',(-0.,-0.,-1.));
#3410=VECTOR('',#3400,1.);
#3420=LINE('',#3390,#3410);
#3430=EDGE_CURVE('',#470,#2470,#3420,.T.);
#3440=ORIENTED_EDGE('',*,*,#3430,.F.);
#3450=ORIENTED_EDGE('',*,*,#2480,.T.);
#3460=ORIENTED_EDGE('',*,*,#3260,.T.);
#3470=ORIENTED_EDGE('',*,*,#480,.F.);
#3480=EDGE_LOOP('',(#3470,#3460,#3450,#3440));
#3490=FACE_OUTER_BOUND('',#3480,.T.);
#3500=ADVANCED_FACE('',(#3490),#3380,.T.);
#3510=CARTESIAN_POINT('',(34.5906588054792,14.9,0.));
#3520=DIRECTION('',(1.,0.,0.));
#3530=DIRECTION('',(0.,-1.,0.));
#3540=AXIS2_PLACEMENT_3D('',#3510,#3520,#3530);
#3550=PLANE('',#3540);
#3560=ORIENTED_EDGE('',*,*,#3110,.F.);
#3570=ORIENTED_EDGE('',*,*,#2540,.T.);
#3580=ORIENTED_EDGE('',*,*,#3430,.T.);
#3590=ORIENTED_EDGE('',*,*,#700,.F.);
#3600=EDGE_LOOP('',(#3590,#3580,#3570,#3560));
#3610=FACE_OUTER_BOUND('',#3600,.T.);
#3620=ADVANCED_FACE('',(#3610),#3550,.T.);
#3630=CARTESIAN_POINT('',(48.1906588054792,23.,0.));
#3640=DIRECTION('',(0.,0.,1.));
#3650=DIRECTION('',(1.,0.,0.));
#3660=AXIS2_PLACEMENT_3D('',#3630,#3640,#3650);
#3670=CYLINDRICAL_SURFACE('',#3660,1.8);
#3680=CARTESIAN_POINT('',(49.9906588054792,23.,0.));
#3690=DIRECTION('',(-0.,-0.,-1.));
#3700=VECTOR('',#3690,1.);
#3710=LINE('',#3680,#3700);
#3720=EDGE_CURVE('',#2630,#1300,#3710,.T.);
#3730=ORIENTED_EDGE('',*,*,#3720,.F.);
#3740=ORIENTED_EDGE('',*,*,#1310,.F.);
#3750=CARTESIAN_POINT('',(46.3906588054792,23.,0.));
#3760=DIRECTION('',(-0.,-0.,-1.));
#3770=VECTOR('',#3760,1.);
#3780=LINE('',#3750,#3770);
#3790=EDGE_CURVE('',#2740,#1210,#3780,.T.);
#3800=ORIENTED_EDGE('',*,*,#3790,.T.);
#3810=ORIENTED_EDGE('',*,*,#2750,.T.);
#3820=EDGE_LOOP('',(#3810,#3800,#3740,#3730));
#3830=FACE_OUTER_BOUND('',#3820,.T.);
#3840=ADVANCED_FACE('',(#3830),#3670,.F.);
#3850=CARTESIAN_POINT('',(46.3906588054792,22.,0.));
#3860=DIRECTION('',(1.,0.,0.));
#3870=DIRECTION('',(0.,-1.,0.));
#3880=AXIS2_PLACEMENT_3D('',#3850,#3860,#3870);
#3890=PLANE('',#3880);
#3900=ORIENTED_EDGE('',*,*,#3790,.F.);
#3910=ORIENTED_EDGE('',*,*,#1220,.T.);
#3920=CARTESIAN_POINT('',(46.3906588054792,22.,0.));
#3930=DIRECTION('',(-0.,-0.,-1.));
#3940=VECTOR('',#3930,1.);
#3950=LINE('',#3920,#3940);
#3960=EDGE_CURVE('',#2820,#1190,#3950,.T.);
#3970=ORIENTED_EDGE('',*,*,#3960,.T.);
#3980=ORIENTED_EDGE('',*,*,#2830,.F.);
#3990=EDGE_LOOP('',(#3980,#3970,#3910,#3900));
#4000=FACE_OUTER_BOUND('',#3990,.T.);
#4010=ADVANCED_FACE('',(#4000),#3890,.T.);
#4020=CARTESIAN_POINT('',(49.9906588054792,23.,0.));
#4030=DIRECTION('',(-1.,0.,0.));
#4040=DIRECTION('',(0.,1.,0.));
#4050=AXIS2_PLACEMENT_3D('',#4020,#4030,#4040);
#4060=PLANE('',#4050);
#4070=CARTESIAN_POINT('',(49.9906588054792,22.,0.));
#4080=DIRECTION('',(-0.,-0.,-1.));
#4090=VECTOR('',#4080,1.);
#4100=LINE('',#4070,#4090);
#4110=EDGE_CURVE('',#2650,#1380,#4100,.T.);
#4120=ORIENTED_EDGE('',*,*,#4110,.F.);
#4130=ORIENTED_EDGE('',*,*,#1390,.T.);
#4140=ORIENTED_EDGE('',*,*,#3720,.T.);
#4150=ORIENTED_EDGE('',*,*,#2660,.F.);
#4160=EDGE_LOOP('',(#4150,#4140,#4130,#4120));
#4170=FACE_OUTER_BOUND('',#4160,.T.);
#4180=ADVANCED_FACE('',(#4170),#4060,.T.);
#4190=CARTESIAN_POINT('',(48.1906588054792,22.,0.));
#4200=DIRECTION('',(0.,0.,1.));
#4210=DIRECTION('',(1.,0.,0.));
#4220=AXIS2_PLACEMENT_3D('',#4190,#4200,#4210);
#4230=CYLINDRICAL_SURFACE('',#4220,1.8);
#4240=ORIENTED_EDGE('',*,*,#3960,.F.);
#4250=ORIENTED_EDGE('',*,*,#1460,.F.);
#4260=ORIENTED_EDGE('',*,*,#4110,.T.);
#4270=ORIENTED_EDGE('',*,*,#2900,.T.);
#4280=EDGE_LOOP('',(#4270,#4260,#4250,#4240));
#4290=FACE_OUTER_BOUND('',#4280,.T.);
#4300=ADVANCED_FACE('',(#4290),#4230,.F.);
#4310=CLOSED_SHELL('',(#1720,#1890,#2060,#2180,#2940,#3160,#3330,#3500,
#3620,#3840,#4010,#4180,#4300,#1500,#740));
#4320=MANIFOLD_SOLID_BREP('',#4310);
#4330=CARTESIAN_POINT('',(0.,0.,0.));
#4340=DIRECTION('',(0.,0.,1.));
#4350=DIRECTION('',(1.,0.,0.));
#4360=AXIS2_PLACEMENT_3D('',#4330,#4340,#4350);
#4370=APPLICATION_CONTEXT(' ');
#4380=APPLICATION_PROTOCOL_DEFINITION(' ','automotive_design',1998,#4370
);
#4390=PRODUCT_CONTEXT('',#4370,'mechanical');
#4400=PRODUCT_DEFINITION_CONTEXT('part definition',#4370,'design');
#4410=PRODUCT('0827451_CARRIER_EMP_27X15-select',
'0827451_CARRIER_EMP_27X15-select','',(#4390));
#4420=PRODUCT_RELATED_PRODUCT_CATEGORY('part',' ',(#4410));
#4430=PRODUCT_DEFINITION_FORMATION_WITH_SPECIFIED_SOURCE('','',#4410,
.BOUGHT.);
#4440=PRODUCT_DEFINITION('',' ',#4430,#4400);
#4450=PRODUCT_DEFINITION_SHAPE('','',#4440);
#4460=DIMENSIONAL_EXPONENTS(1.,0.,0.,0.,0.,0.,0.);
#4470=DIMENSIONAL_EXPONENTS(0.,0.,0.,0.,0.,0.,0.);
#4480=DIMENSIONAL_EXPONENTS(0.,0.,0.,0.,0.,0.,0.);
#4490=(LENGTH_UNIT() NAMED_UNIT(*) SI_UNIT(.MILLI.,.METRE.));
#4500=(NAMED_UNIT(*) PLANE_ANGLE_UNIT() SI_UNIT($,.RADIAN.));
#4510=(NAMED_UNIT(*) SI_UNIT($,.STERADIAN.) SOLID_ANGLE_UNIT());
#4520=(GEOMETRIC_REPRESENTATION_CONTEXT(3) 
GLOBAL_UNCERTAINTY_ASSIGNED_CONTEXT((#4530)) 
GLOBAL_UNIT_ASSIGNED_CONTEXT((#4490,#4500,#4510)) REPRESENTATION_CONTEXT
('',''));
#4530=UNCERTAINTY_MEASURE_WITH_UNIT(LENGTH_MEASURE(1.E-6),#4490,
'distance_accuracy_value','maximum gap value');
#4540=ADVANCED_BREP_SHAPE_REPRESENTATION('',(#4360,#4320),#4520);
#4550=SHAPE_DEFINITION_REPRESENTATION(#4450,#4540);
#4560=COLOUR_RGB('',0.313725501298904,0.313725501298904,
0.313725501298904);
#4570=FILL_AREA_STYLE_COLOUR('',#4560);
#4580=FILL_AREA_STYLE('',(#4570));
#4590=SURFACE_STYLE_FILL_AREA(#4580);
#4600=SURFACE_SIDE_STYLE('',(#4590));
#4610=SURFACE_STYLE_USAGE(.BOTH.,#4600);
#4620=PRESENTATION_STYLE_ASSIGNMENT((#4610));
#4630=STYLED_ITEM('',(#4620),#4320);
#4640=DRAUGHTING_MODEL('',(#4630),#4520);
#4650=CARTESIAN_POINT('',(-48.1906588054792,-22.5,0.));
#4660=DIRECTION('',(0.,0.,1.));
#4670=DIRECTION('',(1.,0.,0.));
#4680=AXIS2_PLACEMENT_3D('',#4650,#4660,#4670);
#4690=ITEM_DEFINED_TRANSFORMATION('0827451_CARRIER_EMP_27X15-select','',
#4360,#4680);
#4700=APPLICATION_CONTEXT(' ');
#4710=APPLICATION_PROTOCOL_DEFINITION(' ','automotive_design',1998,#4700
);
#4720=PRODUCT_CONTEXT('',#4700,'mechanical');
#4730=PRODUCT_DEFINITION_CONTEXT('part definition',#4700,'design');
#4740=PRODUCT('0827451_CARRIER_EMP_27X15-select',
'0827451_CARRIER_EMP_27X15-select','',(#4720));
#4750=PRODUCT_RELATED_PRODUCT_CATEGORY('part',' ',(#4740));
#4760=PRODUCT_DEFINITION_FORMATION_WITH_SPECIFIED_SOURCE('','',#4740,
.BOUGHT.);
#4770=PRODUCT_DEFINITION('',' ',#4760,#4730);
#4780=PRODUCT_DEFINITION_SHAPE('','',#4770);
#4790=DIMENSIONAL_EXPONENTS(1.,0.,0.,0.,0.,0.,0.);
#4800=DIMENSIONAL_EXPONENTS(0.,0.,0.,0.,0.,0.,0.);
#4810=DIMENSIONAL_EXPONENTS(0.,0.,0.,0.,0.,0.,0.);
#4820=(LENGTH_UNIT() NAMED_UNIT(*) SI_UNIT(.MILLI.,.METRE.));
#4830=(NAMED_UNIT(*) PLANE_ANGLE_UNIT() SI_UNIT($,.RADIAN.));
#4840=(NAMED_UNIT(*) SI_UNIT($,.STERADIAN.) SOLID_ANGLE_UNIT());
#4850=(GEOMETRIC_REPRESENTATION_CONTEXT(3) 
GLOBAL_UNCERTAINTY_ASSIGNED_CONTEXT((#4860)) 
GLOBAL_UNIT_ASSIGNED_CONTEXT((#4820,#4830,#4840)) REPRESENTATION_CONTEXT
('',''));
#4860=UNCERTAINTY_MEASURE_WITH_UNIT(LENGTH_MEASURE(1.E-6),#4820,
'distance_accuracy_value','maximum gap value');
#4870=SHAPE_REPRESENTATION('',(#4360,#4680),#4850);
#4880=SHAPE_DEFINITION_REPRESENTATION(#4780,#4870);
#4890=(REPRESENTATION_RELATIONSHIP('','',#4540,#4870) 
REPRESENTATION_RELATIONSHIP_WITH_TRANSFORMATION(#4690) 
SHAPE_REPRESENTATION_RELATIONSHIP());
#4900=NEXT_ASSEMBLY_USAGE_OCCURRENCE('1','',
'0827451_CARRIER_EMP_27X15-select',#4770,#4440,'');
#4910=PRODUCT_DEFINITION_SHAPE('','',#4900);
#4920=CONTEXT_DEPENDENT_SHAPE_REPRESENTATION(#4890,#4910);
ENDSEC;
END-ISO-10303-21;
