ISO-10303-21;
HEADER;
FILE_DESCRIPTION(('SolidDesigner STEP Export'),'2;1');
FILE_NAME('0801494_UCT_EM_20X7-select.stp','2014-02-14T12:28:55',(''),(
''),
'Creo Elements/Direct Modeling STEP processor for AP214 (Solid Model)',
'Creo Elements/Direct Modeling 18.1B  29-Sep-2012 (C) Parametric Technol
ogy GmbH','');
FILE_SCHEMA(('AUTOMOTIVE_DESIGN { 1 0 10303 214 1 1 1 1 }'));
ENDSEC;
DATA;
#10=CARTESIAN_POINT('',(47.9523769244074,198.656255668205,
-21.8544777017348));
#20=DIRECTION('',(3.97288562037484E-14,1.,-9.28352784817399E-15));
#30=DIRECTION('',(-1.,3.97288562037487E-14,3.58179188831853E-14));
#40=AXIS2_PLACEMENT_3D('',#10,#20,#30);
#50=PLANE('',#40);
#60=CARTESIAN_POINT('',(47.452376924406,198.656255668204,
-73.2038009314757));
#70=DIRECTION('',(1.,-3.97288562037487E-14,-3.64277864558701E-14));
#80=VECTOR('',#70,1.);
#90=LINE('',#60,#80);
#100=CARTESIAN_POINT('',(47.4523769244052,198.656255668204,
-73.2038009314757));
#110=VERTEX_POINT('',#100);
#120=CARTESIAN_POINT('',(48.4523769244053,198.656255668204,
-73.2038009314757));
#130=VERTEX_POINT('',#120);
#140=EDGE_CURVE('',#110,#130,#90,.T.);
#150=ORIENTED_EDGE('',*,*,#140,.F.);
#160=CARTESIAN_POINT('',(48.4523769244078,198.656255668205,
-21.8544777017339));
#170=DIRECTION('',(-3.64277864558704E-14,-9.28352784817254E-15,-1.));
#180=VECTOR('',#170,1.);
#190=LINE('',#160,#180);
#200=CARTESIAN_POINT('',(48.4523769244055,198.656255668204,
-66.2038009314758));
#210=VERTEX_POINT('',#200);
#220=EDGE_CURVE('',#210,#130,#190,.T.);
#230=ORIENTED_EDGE('',*,*,#220,.T.);
#240=CARTESIAN_POINT('',(47.4523769244062,198.656255668204,
-66.2038009314758));
#250=DIRECTION('',(1.,-3.97288562037487E-14,-3.64277864558701E-14));
#260=VECTOR('',#250,1.);
#270=LINE('',#240,#260);
#280=CARTESIAN_POINT('',(47.4523769244055,198.656255668204,
-66.2038009314758));
#290=VERTEX_POINT('',#280);
#300=EDGE_CURVE('',#290,#210,#270,.T.);
#310=ORIENTED_EDGE('',*,*,#300,.T.);
#320=CARTESIAN_POINT('',(47.4523769244078,198.656255668205,
-21.8544777017339));
#330=DIRECTION('',(-3.64277864558704E-14,-9.28352784817254E-15,-1.));
#340=VECTOR('',#330,1.);
#350=LINE('',#320,#340);
#360=EDGE_CURVE('',#290,#110,#350,.T.);
#370=ORIENTED_EDGE('',*,*,#360,.F.);
#380=EDGE_LOOP('',(#370,#310,#230,#150));
#390=FACE_OUTER_BOUND('',#380,.T.);
#400=ADVANCED_FACE('',(#390),#50,.T.);
#410=COLOUR_RGB('',1.,1.,1.);
#420=FILL_AREA_STYLE_COLOUR('',#410);
#430=FILL_AREA_STYLE('',(#420));
#440=SURFACE_STYLE_FILL_AREA(#430);
#450=SURFACE_SIDE_STYLE('',(#440));
#460=SURFACE_STYLE_USAGE(.BOTH.,#450);
#470=PRESENTATION_STYLE_ASSIGNMENT((#460));
#480=CARTESIAN_POINT('',(48.4523769244095,178.012493198084,
45.5961990685243));
#490=DIRECTION('',(1.,-4.27833136030727E-15,-3.60603924161262E-14));
#500=DIRECTION('',(-4.27833136030694E-15,-1.,8.99020075409342E-15));
#510=AXIS2_PLACEMENT_3D('',#480,#490,#500);
#520=PLANE('',#510);
#530=ORIENTED_EDGE('',*,*,#220,.F.);
#540=CARTESIAN_POINT('',(48.4523769243985,11.2841505625128,
-73.2038009314749));
#550=DIRECTION('',(3.97288562037486E-14,1.,-4.08957494585545E-15));
#560=VECTOR('',#550,1.);
#570=LINE('',#540,#560);
#580=CARTESIAN_POINT('',(48.4523769244052,178.656255668204,
-73.2038009314756));
#590=VERTEX_POINT('',#580);
#600=EDGE_CURVE('',#590,#130,#570,.T.);
#610=ORIENTED_EDGE('',*,*,#600,.T.);
#620=CARTESIAN_POINT('',(48.452376924407,178.656255668205,
-21.8544777017338));
#630=DIRECTION('',(3.60603924161262E-14,8.79830259106598E-15,1.));
#640=VECTOR('',#630,1.);
#650=LINE('',#620,#640);
#660=CARTESIAN_POINT('',(48.4523769244054,178.656255668204,
-66.2038009314757));
#670=VERTEX_POINT('',#660);
#680=EDGE_CURVE('',#590,#670,#650,.T.);
#690=ORIENTED_EDGE('',*,*,#680,.F.);
#700=CARTESIAN_POINT('',(48.4523769243988,11.2841505625128,
-66.2038009314743));
#710=DIRECTION('',(-3.97288562037484E-14,-1.,7.80534150878154E-15));
#720=VECTOR('',#710,1.);
#730=LINE('',#700,#720);
#740=EDGE_CURVE('',#210,#670,#730,.T.);
#750=ORIENTED_EDGE('',*,*,#740,.T.);
#760=EDGE_LOOP('',(#750,#690,#610,#530));
#770=FACE_OUTER_BOUND('',#760,.T.);
#780=ADVANCED_FACE('',(#770),#520,.T.);
#790=COLOUR_RGB('',1.,1.,1.);
#800=FILL_AREA_STYLE_COLOUR('',#790);
#810=FILL_AREA_STYLE('',(#800));
#820=SURFACE_STYLE_FILL_AREA(#810);
#830=SURFACE_SIDE_STYLE('',(#820));
#840=SURFACE_STYLE_USAGE(.BOTH.,#830);
#850=PRESENTATION_STYLE_ASSIGNMENT((#840));
#860=CARTESIAN_POINT('',(47.9523769243982,11.284150562513,
-73.2038009314749));
#870=DIRECTION('',(3.64277864558702E-14,4.089574945854E-15,1.));
#880=DIRECTION('',(-3.50831308036974E-14,-1.,4.08957494585527E-15));
#890=AXIS2_PLACEMENT_3D('',#860,#870,#880);
#900=PLANE('',#890);
#910=CARTESIAN_POINT('',(47.4523769244052,178.656255668204,
-73.2038009314756));
#920=DIRECTION('',(1.,-3.97288562037487E-14,-3.64277864558701E-14));
#930=VECTOR('',#920,1.);
#940=LINE('',#910,#930);
#950=CARTESIAN_POINT('',(47.4523769244051,178.656255668204,
-73.2038009314756));
#960=VERTEX_POINT('',#950);
#970=EDGE_CURVE('',#960,#590,#940,.T.);
#980=ORIENTED_EDGE('',*,*,#970,.F.);
#990=ORIENTED_EDGE('',*,*,#600,.F.);
#1000=ORIENTED_EDGE('',*,*,#140,.T.);
#1010=CARTESIAN_POINT('',(47.4523769243985,11.2841505625129,
-73.2038009314749));
#1020=DIRECTION('',(3.97288562037486E-14,1.,-4.08957494585545E-15));
#1030=VECTOR('',#1020,1.);
#1040=LINE('',#1010,#1030);
#1050=EDGE_CURVE('',#960,#110,#1040,.T.);
#1060=ORIENTED_EDGE('',*,*,#1050,.T.);
#1070=EDGE_LOOP('',(#1060,#1000,#990,#980));
#1080=FACE_OUTER_BOUND('',#1070,.T.);
#1090=ADVANCED_FACE('',(#1080),#900,.F.);
#1100=COLOUR_RGB('',1.,1.,1.);
#1110=FILL_AREA_STYLE_COLOUR('',#1100);
#1120=FILL_AREA_STYLE('',(#1110));
#1130=SURFACE_STYLE_FILL_AREA(#1120);
#1140=SURFACE_SIDE_STYLE('',(#1130));
#1150=SURFACE_STYLE_USAGE(.BOTH.,#1140);
#1160=PRESENTATION_STYLE_ASSIGNMENT((#1150));
#1170=CARTESIAN_POINT('',(47.4523769244068,177.778771198067,
-26.7538009314532));
#1180=DIRECTION('',(1.,-4.27833136030726E-15,-3.60603924161262E-14));
#1190=DIRECTION('',(4.27833136030694E-15,1.,-9.04897726716181E-15));
#1200=AXIS2_PLACEMENT_3D('',#1170,#1180,#1190);
#1210=PLANE('',#1200);
#1220=CARTESIAN_POINT('',(47.452376924407,178.656255668205,
-21.8544777017338));
#1230=DIRECTION('',(3.60603924161262E-14,8.79830259106598E-15,1.));
#1240=VECTOR('',#1230,1.);
#1250=LINE('',#1220,#1240);
#1260=CARTESIAN_POINT('',(47.4523769244054,178.656255668204,
-66.2038009314756));
#1270=VERTEX_POINT('',#1260);
#1280=EDGE_CURVE('',#960,#1270,#1250,.T.);
#1290=ORIENTED_EDGE('',*,*,#1280,.T.);
#1300=ORIENTED_EDGE('',*,*,#1050,.F.);
#1310=ORIENTED_EDGE('',*,*,#360,.T.);
#1320=CARTESIAN_POINT('',(47.4523769243988,11.2841505625129,
-66.2038009314743));
#1330=DIRECTION('',(-3.97288562037484E-14,-1.,7.80534150878154E-15));
#1340=VECTOR('',#1330,1.);
#1350=LINE('',#1320,#1340);
#1360=EDGE_CURVE('',#290,#1270,#1350,.T.);
#1370=ORIENTED_EDGE('',*,*,#1360,.F.);
#1380=EDGE_LOOP('',(#1370,#1310,#1300,#1290));
#1390=FACE_OUTER_BOUND('',#1380,.T.);
#1400=ADVANCED_FACE('',(#1390),#1210,.F.);
#1410=COLOUR_RGB('',1.,1.,1.);
#1420=FILL_AREA_STYLE_COLOUR('',#1410);
#1430=FILL_AREA_STYLE('',(#1420));
#1440=SURFACE_STYLE_FILL_AREA(#1430);
#1450=SURFACE_SIDE_STYLE('',(#1440));
#1460=SURFACE_STYLE_USAGE(.BOTH.,#1450);
#1470=PRESENTATION_STYLE_ASSIGNMENT((#1460));
#1480=CARTESIAN_POINT('',(47.4523769244054,178.656255668204,
-66.2038009314756));
#1490=DIRECTION('',(3.97288562037484E-14,1.,-8.79830259106741E-15));
#1500=DIRECTION('',(3.64277864558704E-14,8.79830259106596E-15,1.));
#1510=AXIS2_PLACEMENT_3D('',#1480,#1490,#1500);
#1520=PLANE('',#1510);
#1530=ORIENTED_EDGE('',*,*,#970,.T.);
#1540=ORIENTED_EDGE('',*,*,#1280,.F.);
#1550=CARTESIAN_POINT('',(47.4523769244054,178.656255668204,
-66.2038009314756));
#1560=DIRECTION('',(1.,-3.97288562037487E-14,-3.64277864558701E-14));
#1570=VECTOR('',#1560,1.);
#1580=LINE('',#1550,#1570);
#1590=EDGE_CURVE('',#1270,#670,#1580,.T.);
#1600=ORIENTED_EDGE('',*,*,#1590,.F.);
#1610=ORIENTED_EDGE('',*,*,#680,.T.);
#1620=EDGE_LOOP('',(#1610,#1600,#1540,#1530));
#1630=FACE_OUTER_BOUND('',#1620,.T.);
#1640=ADVANCED_FACE('',(#1630),#1520,.F.);
#1650=COLOUR_RGB('',1.,1.,1.);
#1660=FILL_AREA_STYLE_COLOUR('',#1650);
#1670=FILL_AREA_STYLE('',(#1660));
#1680=SURFACE_STYLE_FILL_AREA(#1670);
#1690=SURFACE_SIDE_STYLE('',(#1680));
#1700=SURFACE_STYLE_USAGE(.BOTH.,#1690);
#1710=PRESENTATION_STYLE_ASSIGNMENT((#1700));
#1720=CARTESIAN_POINT('',(47.9523769243985,11.284150562513,
-66.2038009314743));
#1730=DIRECTION('',(-3.64277864558704E-14,-7.8053415087801E-15,-1.));
#1740=DIRECTION('',(3.50831308036973E-14,1.,-7.80534150878137E-15));
#1750=AXIS2_PLACEMENT_3D('',#1720,#1730,#1740);
#1760=PLANE('',#1750);
#1770=ORIENTED_EDGE('',*,*,#300,.F.);
#1780=ORIENTED_EDGE('',*,*,#740,.F.);
#1790=ORIENTED_EDGE('',*,*,#1590,.T.);
#1800=ORIENTED_EDGE('',*,*,#1360,.T.);
#1810=EDGE_LOOP('',(#1800,#1790,#1780,#1770));
#1820=FACE_OUTER_BOUND('',#1810,.T.);
#1830=ADVANCED_FACE('',(#1820),#1760,.F.);
#1840=COLOUR_RGB('',1.,1.,1.);
#1850=FILL_AREA_STYLE_COLOUR('',#1840);
#1860=FILL_AREA_STYLE('',(#1850));
#1870=SURFACE_STYLE_FILL_AREA(#1860);
#1880=SURFACE_SIDE_STYLE('',(#1870));
#1890=SURFACE_STYLE_USAGE(.BOTH.,#1880);
#1900=PRESENTATION_STYLE_ASSIGNMENT((#1890));
#1910=CLOSED_SHELL('',(#400,#780,#1090,#1400,#1640,#1830));
#1920=MANIFOLD_SOLID_BREP('',#1910);
#1930=CARTESIAN_POINT('',(0.,0.,0.));
#1940=DIRECTION('',(0.,0.,1.));
#1950=DIRECTION('',(1.,0.,0.));
#1960=AXIS2_PLACEMENT_3D('',#1930,#1940,#1950);
#1970=APPLICATION_CONTEXT(' ');
#1980=APPLICATION_PROTOCOL_DEFINITION(' ','automotive_design',1998,#1970
);
#1990=PRODUCT_CONTEXT('',#1970,'mechanical');
#2000=PRODUCT_DEFINITION_CONTEXT('part definition',#1970,'design');
#2010=PRODUCT('0801494_UCT_EM_20X7-select','0801494_UCT_EM_20X7-select',
'',(#1990));
#2020=PRODUCT_RELATED_PRODUCT_CATEGORY('part',' ',(#2010));
#2030=PRODUCT_DEFINITION_FORMATION_WITH_SPECIFIED_SOURCE('','',#2010,
.BOUGHT.);
#2040=PRODUCT_DEFINITION('',' ',#2030,#2000);
#2050=PRODUCT_DEFINITION_SHAPE('','',#2040);
#2060=DIMENSIONAL_EXPONENTS(1.,0.,0.,0.,0.,0.,0.);
#2070=DIMENSIONAL_EXPONENTS(0.,0.,0.,0.,0.,0.,0.);
#2080=DIMENSIONAL_EXPONENTS(0.,0.,0.,0.,0.,0.,0.);
#2090=(LENGTH_UNIT() NAMED_UNIT(*) SI_UNIT(.MILLI.,.METRE.));
#2100=(NAMED_UNIT(*) PLANE_ANGLE_UNIT() SI_UNIT($,.RADIAN.));
#2110=(NAMED_UNIT(*) SI_UNIT($,.STERADIAN.) SOLID_ANGLE_UNIT());
#2120=(GEOMETRIC_REPRESENTATION_CONTEXT(3) 
GLOBAL_UNCERTAINTY_ASSIGNED_CONTEXT((#2130)) 
GLOBAL_UNIT_ASSIGNED_CONTEXT((#2090,#2100,#2110)) REPRESENTATION_CONTEXT
('',''));
#2130=UNCERTAINTY_MEASURE_WITH_UNIT(LENGTH_MEASURE(1.E-5),#2090,
'distance_accuracy_value','maximum gap value');
#2140=ADVANCED_BREP_SHAPE_REPRESENTATION('',(#1960,#1920),#2120);
#2150=SHAPE_DEFINITION_REPRESENTATION(#2050,#2140);
#2160=COLOUR_RGB('',1.,1.,1.);
#2170=FILL_AREA_STYLE_COLOUR('',#2160);
#2180=FILL_AREA_STYLE('',(#2170));
#2190=SURFACE_STYLE_FILL_AREA(#2180);
#2200=SURFACE_SIDE_STYLE('',(#2190));
#2210=SURFACE_STYLE_USAGE(.BOTH.,#2200);
#2220=PRESENTATION_STYLE_ASSIGNMENT((#2210));
#2230=STYLED_ITEM('',(#2220),#1920);
#2240=OVER_RIDING_STYLED_ITEM('',(#470),#400,#2230);
#2250=OVER_RIDING_STYLED_ITEM('',(#850),#780,#2230);
#2260=OVER_RIDING_STYLED_ITEM('',(#1160),#1090,#2230);
#2270=OVER_RIDING_STYLED_ITEM('',(#1470),#1400,#2230);
#2280=OVER_RIDING_STYLED_ITEM('',(#1710),#1640,#2230);
#2290=OVER_RIDING_STYLED_ITEM('',(#1900),#1830,#2230);
#2300=DRAUGHTING_MODEL('',(#2230,#2240,#2250,#2260,#2270,#2280,#2290),
#2120);
#2310=CARTESIAN_POINT('',(198.656255668205,-66.2038009314748,
-47.4523769244045));
#2320=DIRECTION('',(5.01311943979537E-15,-1.,-2.42473532940484E-16));
#2330=DIRECTION('',(-4.03585782736644E-15,-2.42473532940504E-16,1.));
#2340=AXIS2_PLACEMENT_3D('',#2310,#2320,#2330);
#2350=ITEM_DEFINED_TRANSFORMATION('0801494_UCT_EM_20X7-select','',#1960,
#2340);
#2360=APPLICATION_CONTEXT(' ');
#2370=APPLICATION_PROTOCOL_DEFINITION(' ','automotive_design',1998,#2360
);
#2380=PRODUCT_CONTEXT('',#2360,'mechanical');
#2390=PRODUCT_DEFINITION_CONTEXT('part definition',#2360,'design');
#2400=PRODUCT('0801494_UCT_EM_20X7-select','0801494_UCT_EM_20X7-select',
'',(#2380));
#2410=PRODUCT_RELATED_PRODUCT_CATEGORY('part',' ',(#2400));
#2420=PRODUCT_DEFINITION_FORMATION_WITH_SPECIFIED_SOURCE('','',#2400,
.BOUGHT.);
#2430=PRODUCT_DEFINITION('',' ',#2420,#2390);
#2440=PRODUCT_DEFINITION_SHAPE('','',#2430);
#2450=DIMENSIONAL_EXPONENTS(1.,0.,0.,0.,0.,0.,0.);
#2460=DIMENSIONAL_EXPONENTS(0.,0.,0.,0.,0.,0.,0.);
#2470=DIMENSIONAL_EXPONENTS(0.,0.,0.,0.,0.,0.,0.);
#2480=(LENGTH_UNIT() NAMED_UNIT(*) SI_UNIT(.MILLI.,.METRE.));
#2490=(NAMED_UNIT(*) PLANE_ANGLE_UNIT() SI_UNIT($,.RADIAN.));
#2500=(NAMED_UNIT(*) SI_UNIT($,.STERADIAN.) SOLID_ANGLE_UNIT());
#2510=(GEOMETRIC_REPRESENTATION_CONTEXT(3) 
GLOBAL_UNCERTAINTY_ASSIGNED_CONTEXT((#2520)) 
GLOBAL_UNIT_ASSIGNED_CONTEXT((#2480,#2490,#2500)) REPRESENTATION_CONTEXT
('',''));
#2520=UNCERTAINTY_MEASURE_WITH_UNIT(LENGTH_MEASURE(1.E-5),#2480,
'distance_accuracy_value','maximum gap value');
#2530=SHAPE_REPRESENTATION('',(#1960,#2340),#2510);
#2540=SHAPE_DEFINITION_REPRESENTATION(#2440,#2530);
#2550=(REPRESENTATION_RELATIONSHIP('','',#2140,#2530) 
REPRESENTATION_RELATIONSHIP_WITH_TRANSFORMATION(#2350) 
SHAPE_REPRESENTATION_RELATIONSHIP());
#2560=NEXT_ASSEMBLY_USAGE_OCCURRENCE('1','','0801494_UCT_EM_20X7-select'
,#2430,#2040,'');
#2570=PRODUCT_DEFINITION_SHAPE('','',#2560);
#2580=CONTEXT_DEPENDENT_SHAPE_REPRESENTATION(#2550,#2570);
ENDSEC;
END-ISO-10303-21;
